busca

Back Off Bitch

Guns N' Roses

Tom: A
(intro)

E|-------------------------0-----------0----------------|
B|-------------------------0----------------------------|
G|--------------------------------2b(4)-(4)-2-0---------|
D|---2-0----------------------------------------2-0-2---|
A|-------2-0--------2-----------------------------------|
E|-----------3b(5)--0-----------------------------------|

E|------------------------------------------------------|
B|------------------------------------------------------|
G|------------------------------------------------------|
D|---0-2/4-4--4/5-5--5/7-7--7/9-9--9/12--12/14-14/\/\/\-|
A|------------------------------------------------------|
E|------------------------------------------------------|

E|---------------------------------------------------------------------15---|
B|--14b(15)--(15)--14b(15)--------------------------------------15-17-------|
G|--14b(15)--(15)--14b(15)--12-------------------12-14-14/16-16-------------|
D|-----------------------------14----14\0--12-14----------------------------|
A|--------------------------------------------------------------------------|
E|--------------------------------------------------------------------------|

E|--17-15--17b(19)--17b(19)--17b(19)--17b(19)--17b(19)--17b(19)--17b(19)----||
B|--------------------------------------------------------------------------||
G|--------------------------------------------------------------------------||
D|--------------------------------------------------------------------------||
A|--------------------------------------------------------------------------||
E|--------------------------------------------------------------------------||

(riff 1)                                       play 2 times
E|----------------------------------------------------||
B|----------------------------------------------------||
G|----------------------------------------------------||
D|--9-----9\7-----7--7-7---2--9-----9\7-----7--7-7----||
A|--7-----7\5-----4--5-5------7-----7\5-----4--5-5----||
E|----0-0-----0-0--------3------0-0-----0-0-----------||
       * *     * *        *      * *     * *

          1. Oh baby            pretty baby
(riff 2)  2. Oh honey          you let me down honey
E|-----0--------------------------------------||
B|-----0-----------------------------------3--||
G|-----1-----------0--------2--------------2--||
D|-----2-----------0--------2--------------0--||
A|-----2--------------------0--------------0--||
E|-----0-----------3--------------------------||

(verse 1)
I ain`t playin` childhood games...
(riff 3)
E|-----------------------------------------------------------------------|
B|-----------------------------------------------------------------------|
G|--------------------------------------------------------7--7-----7/9---|
D|-----2-----2---------5--5-----5-5-------7--7-----7-7----7--7-----7/9---|
A|-----2-----2---------5--5-----5-5-------7--7-----7-7----5----5-5-------|
E|--0----0-0-------0---3----3-3-------3---5----5-5------5----------------|
          * *                * *                * *             * *

E|------------------------------------------------------------------------|
B|------------------------------------------------------------------------|
G|--------------------------------------------------------7-7-7-7-7-7/9---|
D|-----2-----2--------5--5-----5-5--------7--7-----7-7----7-7-7-7-7-7/9---|
A|-----2-----2--------5--5-----5-5--------7--7-----7-7----5-5-5-5-5-5/7---|
E|--0----0-0-------0--3----3-3--------3---5----5-5------5-----------------|
         * *               * *                 * *

                                                        ...and taste the flame
E|--------------------------------------------------------------------------||
B|--------------------------------------------------------------------------||
G|------------------------------------------------------------7-7-7-7-7-7/9-||
D|-----2-----2--------5--5-----5-5--------7----7--7-------7-7-7-7-7-7-7-7/9-||
A|-----2-----2--------5--5-----5-5--------7----7--7-------7-7-5-5-5-5-5-5/7-||
E|--0----0-0-------0--3----3-3--------3---5----5--5-5-5-5-5-5---------------||                            * *               * *
(chorus)
(riff 4)                                                            play 3 times
E|--------------------------------------------------------------------------||
B|--------------------------------------------------------------------------||
G|--------------------------------------------------------------------------||
D|------9\7----7----------9\7----7--------9----7----7----7-------7---7------||
A|------7\5----4/5--------7\5----4/5------7----5p0--4p0--5p0--4--5---4/5----||
E|--0--------------0-0-0-------------0-0------------------------------------||

(riff 5)
      back off    back off bitch                              play 2 times
E|----------------------------------------------------------------------||
B|----------------------------------------------------------------------||
G|--0----------2-----------------------9----------7--------9--------7---||
D|--0----------2-----------------------9----------7--------9--------7---||
A|-------------0-------------------7-7----7--7-7----7--7-7---7--7-7-----||
E|--3---------------0-3b(5)/\/\-0---------------------------------------||
                                 *  * *    *  * *    *  * *   *  * *

(riff 6)
E|-------------------------------------------------------------------------|
B|---------------8-----8-7-----10/\/\------7b(8)----7/\/\--------------8---|
G|---9---9-7---------------7-------------------------------9---9-7---------|
D|-----------9-7-------------9-------------------------------------9-7-----|
A|-------------------------------------------------------------------------|
E|-------------------------------------------------------------------------|

E|--------------------10--------------------------------------------||
B|---8-7------10b(12)----10p8-10-8-7b(8)----------------------------||
G|-------7-------------------------------9---7--9--7b(9)/\/\/\------||
D|---------9-------------------------------9------------------------||
A|------------------------------------------------------------------||
E|------------------------------------------------------------------||

(verse 2)
(riff 3)

(chorus)
(riff 4) (play 3 times)
(riff 5) (play 2 times)
(riff 6)

(solo 1)
E|--------------------------------------------------------9-12b(14)-----------|
B|---9h10-10-9h10-10-9-10-10--9h10-10-9h10-10/\/\------10-----------10-12-10--|
G|---9h11-11-9h11-11-9-11-11--9h11-11-9h11-11/\/\---11------------------------|
D|----------------------------------------------------------------------------|
A|----------------------------------------------------------------------------|
E|----------------------------------------------------------------------------|

E|--------------------------------------9h10h12p10p9----------------7h9h10p9p7-----------|
B|---12p10p9--10---9---10p9-----9h10h12--------------12p10p9\7h9h10------------10p9p7-7--|
G|--------------------------11-----------------------------------------------------------|
D|---------------------------------------------------------------------------------------|
A|---------------------------------------------------------------------------------------|
E|---------------------------------------------------------------------------------------|

E|---7p5h7h9p7p5\4h6--5h7p5-4h5p4--------------------------2-------------------------|
B|--------------------------------7p0h7--5---------------2---5p2-------------2/\/\---|
G|-----------------------------------------6-5-4/\/\---4---------4b(6)p2--4--2/\/\---|
D|-----------------------------------------------------------------------------------|
A|-----------------------------------------------------------------------------------|
E|-----------------------------------------------------------------------------------|

E|------------------------------------------14--17-16-14-16-----14--------14----14--------|
B|---17b(19)--(17)--(19)/\/\-------------14------------------17----17b(19)---17----14-15--|
G|------------------------------------14--------------------------------------------------|
D|----------------------------------------------------------------------------------------|
A|---------------------------------16-----------------------------------------------------|
E|----------------------------------------------------------------------------------------|

E|------------------------------------------------------|
B|--14h15p14----14-------14-----------------------------|
G|-----------16----16h17----17p16p14--16--14h16p14p13---|
D|------------------------------------------------------|
A|------------------------------------------------------|
E|------------------------------------------------------|

E|------------------------------------------------|
B|------------------------------------------------|
G|------14----13h14p13----13----------------------|
D|---16----16----------16----16-14----------------|
A|---------------------------------16-15-14/\/\---|
E|------------------------------------------------|

E|------------------------------------------------14--16--17b(19)----16b(17)------12---12--||
B|---------------------------------------------14------------------------------------12----||
G|------------------------------------------14---------------------------------------------||
D|------------------------------------14-16------------------------------------------------||
A|---12-14--14/\/\--12-------12-14/16------------------------------------------------------||
E|---------------------12-14---------------------------------------------------------------||

(verse 3)
(riff 2) (play 2 times)
(chorus)
(riff 4) (play 4 times)
(riff 5) (play 2 times)

(solo 2 + riff 5)
E|-----------------------------------------------------------------------------------------|
B|---12-----14b(15)--14-------14b(15)p12--------------------------------------12---14b(15)-|
G|---12-----14b(15)--14-------14b(15)p12--------------------------------------12---14b(15)-|
D|----------------------------------------14/\/\----12/\/\--------14/\/\-------------------|
A|-----------------------------------------------14-----------------------14---------------|
E|-----------------------------------------------------------------------------------------|

                                     ...bitch    bitch    bitch    bitch    bitch
E|--------------------------------------12/\/\---14/\/\---15/\/\---17/\/\---19--------------||
B|---12------14b(15)--14---------14p12--15b(17)--17b(19)--18b(20)--20b(22)--22b(24)---------||
G|---12------14b(15)--14---------14p12-------------------------------------------------9----||
D|-------------------------------------------------------------------------------------9----||
A|-------------------------------------------------------------------------------------7----||
E|------------------------------------------------------------------------------------------||

h-hammer on
p-pull off
/-slide
*-palm mute
B|-bend
/\/\-vibrato

Clipes