busca

Dive

Nirvana

By Bobrik Studdard

Intro:

G]-----------------------|  x6
D]---------------/22-222-|
A]-----------------------|
E]—2-0-2b2-0-2-00--------|

G]-------------|   x8
D]-----2(hold)-|
A]----0--------|
E]—22----0—0—0-|

G]--------------------------------------------|
D]------------------------------------/22-222-|
A]-2-2/4—4-4/5—5-5/7—7------------------------|
E]----------------------2-0-2b2-0-2-00--------|

G]--------------------------------------------|
D]------------------------------------/22-222-|
A]-2-2/4—4-4/5—5-5/7—7------------------------|
E]----------------------2-0-2b2-0-2-00--------|

G]--------------------------------------------|
D]------------------------------------/22-222-|
A]-2-2/4—4-4/5—5-5/7—7------------------------|
E]----------------------2-0-2b2-0-2-00--------|

G]-----------------------|  x3
D]---------------/22-222-|
A]-----------------------|
E]—2-0-2b2-0-2-00--------|


G]-------------|   x8
D]-----2(hold)-|
A]----0--------|
E]—22----0—0—0-|

G]--------------------------------------------|
D]------------------------------------/22-222-|
A]-2-2/4—4-4/5—5-5/7—7------------------------|
E]----------------------2-0-2b2-0-2-00--------|

G]--------------------------------------------|
D]------------------------------------/22-222-|
A]-2-2/4—4-4/5—5-5/7—7------------------------|
E]----------------------2-0-2b2-0-2-00--------|

G]--------------------------------------------|
D]------------------------------------/22-222-|
A]-2-2/4—4-4/5—5-5/7—7------------------------|
E]----------------------2-0-2b2-0-2-00--------|

G]-----------------------|  x3
D]---------------/22-222-|
A]-----------------------|
E]—2-0-2b2-0-2-00--------|

G]--------------------------------| x8
D]--------------------------------|
A]—13-11-13b13-11-13-11/11--------|
E]-----------------------12-12-12-|

G]--------------------------------------------|
D]------------------------------------/22-222-|
A]-2-2/4—4-4/5—5-5/7—7------------------------|
E]----------------------2-0-2b2-0-2-00--------|

G]--------------------------------------------|
D]------------------------------------/22-222-|
A]-2-2/4—4-4/5—5-5/7—7------------------------|
E]----------------------2-0-22-0-2-00---------|

G]--------------------------------------------|
D]------------------------------------/22-222-|
A]-2-2/4—4-4/5—5-5/7—7------------------------|
E]----------------------2-0-2b2-0-2-00---------|

G]-----------------------|  x6
D]---------------/22-222-|
A]-----------------------|
E]—2-0-2b2-0-2-00---------|

This was my first tab I’ve ever done, so tell me what you think.

Clipes

Cifra Club Pro

Aproveite o Cifra Club com benefícios exclusivos e sem anúncios
7 dias grátis
Cifra Club Pro
Aproveite o Cifra Club com benefícios exclusivos e sem anúncios
7 dias grátis