busca

I Hate Myself And I Want To Die

Nirvana

[Intro]
   
F#|-----------------------------------| 
C#|-----------------------------------|
G#|-----------------------------------|
C#|-----2-2-1-0-----------------------|

[Riff Principal]

F#|-----------------------------------| 
C#|-----------------------------------| X8
G#|-3-3-------------------------------|
C#|-----2-2-1-0-----------------------|

[Refrão]

F#|-----------------------------------| 
C#|-----------------------------------| X9
G#|-----------------------------------|
C#|-5-5/8-8-8-8-----------------------|

F#|-----------------------------------| 
C#|-----------------------------------| X7
G#|-3---------------------------------|
C#|---3-3-3--3-3-3--------------------|

Clipes

Cifra Club Pro

Aproveite o Cifra Club com benefícios exclusivos e sem anúncios
7 dias grátis
Cifra Club Pro
Aproveite o Cifra Club com benefícios exclusivos e sem anúncios
7 dias grátis