Butcher's Hook

Slipknot

Tom: G
Tuning : B F# B E G# C#

Intro 
                                               2x
#1t1##1t2#C#|---------------------|-------------------------|
G#|---------------------|-------------------------|
E|---6-----6-----6---6---|-6-----6-----6----------|
B|---6--1--6--1--6-1-6-1-|-6--1--6--1--6----------|
F#|-4--1--4--1--4-1-4-1-|-4--1--4--1--4--1-1-3-4--|
B|------1-----1----1---1-|----1-----1-----1-1-3-4-|#/1t2##/1t1#

#2t1#                                                     4x                    
#2t2#C#|-------------------------|---------------------------|
G#|-------------------------|---------------------------|
E|---6------6-----6-------4-3|-6------6-----6-----------|
B|---6-1-1--6--1--6-1--1--4-3|-6-1-1--6--1--6-----------|
F#|-4-1-1--4--1--4-1--1--2-1|-4-1-1--4--1--4-1--1--3-4--|
B|-----1-1-----1----1--1-----|---1-1-----1----1--1--3-4-|#/2t2##/2t1#
    pm-|     pm  pm-|


#3t1##3t2#C#|------------------------|-----------------------------|
G#|------------------------|-----------------------------|
E|--------------------------|----------------------------|
B|------------2-----------2-|-------2--------------------|
F#|-2--0--2-----2-0-2-0----|-2--0-----2-0-2-0-1--1--3-5--|
B|--------------------------|------------------1--1--3-5-|#/3t2##/3t1#



#4t1#CHorus(Not 100% About this part) 
#4t2#C#|-----------------|------------------|
G#|-----------------|----6-------6-----|
E|------10-----------|----5-------5----|
B|---8--10--8--7--8--|-3--3--3-3--3--3-|
F#|-8--8---8--7--8--|-3--3--3-3--3--3--|
B|---8------8--7--8--|-3-----3-3-----3-|
|----
|----Guitar 2                         
C#|-----------------|------------------|
G#|-----------------|----6-------------|
E|------10-----------|----5------------|
B|---8--10--8--7--8--|-3--3--3---5---3-|
F#|-8--8---8--7--8--|-3--3-------------|
B|---8------8--7--8--|-3---------------|#/4t2##/4t1#


#5t1#Chorus Cont.   
#5t2#C#|-----------------|--------------|
G#|-----------------|--------------|
E|------10-----------|-------8-8-8-|
B|---8--10--8--7--8--|-5--3--8-8-8-|
F#|-8--8---8--7--8--|-5--3--6-6-6--|
B|---8------8--7--8--|-5--3--------|
|----
|----Guitar 2
C#|-----------------|-------------------|
G#|-----------------|-------------------|
E|------10-----------|------------------|
B|---8--10--8--7--8--|-3--3---3---5---7-|
F#|-8--8---8--7--8--|-3--3--------------|
B|---8------8--7--8--|-3----------------|#/5t2##/5t1#

#6t1#Chorus Cont. 
#6t2#C#|-----------------|------------------------|-------------|
G#|-----------------|------------------------|-------------|
E|------10-----------|-5-------6-------7------|------------|
B|---8--10--8--7--8--|-5-------6-------7------|------------|
F#|-8--8---8--7--8--|-3--3-2--4--3-2--5--3-2-|-1-1-1--3-4--|
B|---8------8--7--8--|----3-2-----3-2-----3-2-|-1-1-1--3-4-|#/6t2##/6t1#


#7t1#Bridge (Play through solo)
#7t2#C#|----------------------------------|
G#|----------------------------------|
E|-----------------------------------|
B|------5-----------------5----------|
F#|-0--3--3-2-3-2-3-2-3--3-0--6-6-5--|
B|---0-----3-2-3-2-3-2-3----0--6-6-5-|#/7t2##/7t1#

#8t1#Have not figured out the solo
#8t2#C#|---------|
G#|---------|
E|----------|
B|----------|
F#|---------|
B|----------|#/8t2##/8t1#


#9t1#Outro Riff
#9t2#C#|--------------|
G#|--------------|
E|---------------|
B|---------------|
F#|-1-1-1-2-3----|
B|---1-1-1-2-3---|#/9t2##/9t1#
Composição: Colaboração e revisão: Raul Rodrigues