Do Nothing

Slipknot

Tom: G
http://*

Tuning: Dropped D then down a step (CGCFAD)

Heavy Part
~~~~~~~~~~
#1t1##1t2#|------------------------------|
|------------------------------|
|------------------------------|
|--0-0-0-0-3--0-0-0-0-3--0-0-4-|
|--0-0-0-0-3--0-0-0-0-3--0-0-4-|
|--0-0-0-0-3--0-0-0-0-3--0-0-4-|#/1t2##/1t1#

Smooth Jazz Part
~~~~~~~~~~~~~~~~
#2t1##2t2#|-----------------------------------------12--15----14h12--14-12------------15--14--13--12--|
|--14--13--12--11-----------------14--13--12--15----12-12--12-12--12--11----15--14--13--12--|
|--13--12--11--10--9--10--11--12--13--12--12--15----12-12--12-12--11--10--------------------|
|------------------8---9--10--11------------------------------------------------------------|
|-------------------------------------------------------------------------------------------|
|-------------------------------------------------------------------------------------------|#/2t2##/2t1#

#3t1##3t2#|--15--16--17--18-19-20-|
|--15--16--17--18-19-20-|
|-----------------------|
|-----------------------|
|-----------------------|
|-----------------------|#/3t2##/3t1#

Second Riff in Heavy Part
~~~~~~~~~~~~~~~~~~~~~~~~~
#4t1##4t2#|-------------------|
|-------------------|
|-------------------|
|--8p7-9p8-10p9-9p8-|
|--8p7-9p8-10p9-9p8-|
|--8p7-9p8-10p9-9p8-|#/4t2##/4t1#

Funk Part
~~~~~~~~~
#5t1##5t2#|--7/8-8-x-x-4-5-4-5----7/8-8-x-x-4-x-x-4-5-| 2nd guitar strums
|--7/8-8-x-x-4-5-4-5----7/8-8-x-x-4-x-x-4-5-| the strings while
|--7/8-8-x-x-4-5-4-5----7/8-8-x-x-4-x-x-4-5-| muting them and
|-------------------------------------------| fooling around
|-------------------------------------------| with the wah
|-------------------------------------------| pedal#/5t2##/5t1#

Other Riff of Funk Part
~~~~~~~~~~~~~~~~~~~~~~~
#6t1##6t2#|--3-----3-6--8-|-5--5-|
|--3-----3-6--8-|-5--5-|
|--3-----3-6--8-|-5--5-|
|---------------|------|
|---------------|------|
|---------------|------|#/6t2##/6t1#
Composição: Colaboração e revisão: