Heretic Anthem

Slipknot

A
123
X02220
B
234
X24442
D
123
XX0232
E
123
022100
F#
234
244322
Tom: G
Iowa

Drop A Tuning:

A E A D F# B

8   7   6   6   6   5   4   3  2....drums

#1t1##1t2#e-----------------------------------------------------------------
b-----------------------------------------------------------------
g-----------------------------------------------------------------
d-----------------------------------------------------------------
a-----------------------------------------------------------------
d--------------------------------------------------------22\-0----#/1t2##/1t1#

Fig 1. x3

#2t1##2t2#e-----------------------------------------------------------------
b-----------------------------------------------------------------
g-----------------------------------------------------------------
d-----------------------------------------------------------------
a-------1-------1-------1-------1-------1-------1-------1-------1-
d-0-0-0-1-0-0-0-1-0-0-0-1-0-0-0-1-0-0-0-1-0-0-0-1-0-0-0-1-0-0-0-1-#/2t2##/2t1#

...yeah!...

#3t1##3t2#e-(4)-------------------------------------------------------------
b----(3)----------------------------------------------------------
g-----------------------------------------------------------------
d-----------------------------------------------------------------
a---------------1-------1-------1-------1-------1-------1-------1-
d---------0-0-0-1-0-0-0-1-0-0-0-1-0-0-0-1-0-0-0-1-0-0-0-1-0-0-0-1-#/3t2##/3t1#

#4t1##4t2#e-----------------------------------------------------------------
b-----------------------------------------------------------------
g---------------------------------------3-------------------------
d---------------------------6\5---------3-------------------------
a-------1-----x-------3\2---4\3-4\3-0---1---1-1-------------------
d-0-0-0-1-0-0-x---0-0-3\2-0-----4\3-0-0---0-1-1-------------------#/4t2##/4t1#

Verse 1 Fig 2. ...pop star threat and i'm not dead yet....

#5t1##5t2#e-----------------------------------------------------------------
b-----------------------------------------------------------------
g-----------------------3-----------------------------------------
d-----------6\5---------3-------------------6\5---------3---------
a-----3\2---4\3-4\3-0---1---1--1------3\2---4\3-4\3-0---1---1--1--
d-0-0-3\2-0-----4\3-0-0---0-1--1--0-0-3\2-0-----4\3-0-0---0-1--1--#/5t2##/5t1#

Chorus: Fig 3.

#6t1##6t2#e-----------------------------------------------------------------
b-----------------------------------------------------------------
g-----------------------------------------------------------------
d-----------------------------------------------------------------
a-2--2-5---4---5-6--5-6---7---9-2--2-5---4---5-6--5-6---7---9-----
d-2--2-5---4---5-6--5-6---7---9-2--2-5---4---5-6--5-6---7---9-----#/6t2##/6t1#

Fig 4.
Verse 2
...ev'ry body's so infatuated....

#7t1##7t2#e-----------------------------------------------------------------
b-----------------------------------------------------------------
g-----------------------------------------------------------------
d-----------------------------------------------------------------
a-------1-------1-----2/3-3\2-2/5-------1-------1-----2/3-3\2-2/5-
d-0-0-0-1-0-0-0-1-0-0-2/3-3\2-2/5-0-0-0-1-0-0-0-1-0-0-2/3-3\2-2/5-#/7t2##/7t1#

Interlude:

Fig 5.

#8t1##8t2#e-----------------------------------------------------------------
b-----------------------------------------------------------------
g-------------------------------3---------------------------------
d-------------------------------x---------------------------------
a-0-1-0-3-----------1-2-3---1---1---1-2-3-----------6\5---5-3---3-
d-0-1-0-3-0-0-0-0-0-1-2-3-0-1-0---0-1-2-3-0-0-0-0-0-6\5-0-5-3-0-3-#/8t2##/8t1#

#9t1##9t2#e-----------------------------------------------------------------
b-----------------------------------------------------------------
g-------------------------------3---------------------------------
d-------------------------------x---------------------------------
a-0-1-0-3-----------1-2-3---1---1---1-2-3-----------6\5---5-3-----
d-0-1-0-3-0-0-0-0-0-1-2-3-0-1-0---0-1-2-3-0-0-0-0-0-6\5-0-5-3-----#/9t2##/9t1#

Bridge:

Fig 6 ...30 seconds 16 8 4...

#10t1##10t2#e-----------------------------------------------------------------
b-----------------------------------------------------------------
g---------------------------3-------------------------------------
d---------------------------x-------------------------------------
a-0-1-0-3---------1-2-3--1--1---1-2-3-----------1--1--------------
d-0-1-0-3---------1-2-3--1------1-2-3-----------1--1--------------#/10t2##/10t1#

break down chorus

#11t1##11t2#e-----------------------------------------------------------------
b-----------------------------------------------------------------
g-----------------------------------------------------------------
d-2222--22-555555-4444--55-6666--5566---7777---9999---------------
a-----------------------------------------------------------------
d-----------------------------------------------------------------#/11t2##/11t1#

gtr 2.

#12t1##12t2#e-----------------------------------------------------------------
b-5555--55-888888-7777--88-9999--8899--101010--111111-------------
g-----------------------------------------------------------------
d-----------------------------------------------------------------
a-----------------------------------------------------------------
d-----------------------------------------------------------------#/12t2##/12t1#

that's all

trevor jones
*
Composição: Colaboração e revisão: