Prelude 3.0

Slipknot

Tom: G
#1t1##1t2#|--------------------------|
|--------------------------|
|--------------------------|
|-7----10---12---------9---|
|-7----10---12---------9---|
|-5-----8---10---------7---|#/1t2##/1t1#

Verse 2: x4
Guitar 1:
#2t1##2t2#|--------------------------|
|--------------------------|
|--------------------------|
|-7----10---12---------9---|
|-7----10---12---------9---|
|-5-----8---10---------7---|#/2t2##/2t1#

#3t1#Guitar 2:
#3t2#|-4-0---4-0---4-0---4-0---4-0---4-0---4-0---4-0---|
|-----3-----3-----3-----3-----3-----3-----3-----3-|
|-------------------------------------------------|
|-------------------------------------------------|
|-------------------------------------------------|
|-------------------------------------------------|#/3t2##/3t1#

#4t1##4t2#|-0-----0-----0-----0-----0-----0-----0-----0-----|
|---1-----1-----1-----1-----1-----1-----1-----1---|
|-----2-----2-----2-----2-----2-----2-----2-----2-|
|-------------------------------------------------|
|-------------------------------------------------|
|-------------------------------------------------|#/4t2##/4t1#


#5t1#Verse 1: x2 Guitar 1 (Guitar 2 mute)
#5t2#|--------------------------|
|--------------------------|
|--------------------------|
|-7----10---12---------9---|
|-7----10---12---------9---|
|-5-----8---10---------7---|#/5t2##/5t1#


Chorus: x4
Guitar 1:
#6t1##6t2#|--------------------------------|
|--------------------------------|
|--------------------------------|
|-10---12--------5---9-5--7------|
|-10---12--------5---9-5--7------|
|--8---10--------3---7-3--5------|#/6t2##/6t1#

#7t1#Guitar 2:
#7t2#|----------------8--7--5--8--7--5|
|--------------------------------|
|--------------------------------|
|--------------------------------|
|--------------------------------|
|--------------------------------|#/7t2##/7t1#


Verse 2: x4
Guitar 1:
#8t1##8t2#|--------------------------|
|--------------------------|
|--------------------------|
|-7----10---12---------9---|
|-7----10---12---------9---|
|-5-----8---10---------7---|#/8t2##/8t1#

#9t1#Guitar 2:
#9t2#|-4-0---4-0---4-0---4-0---4-0---4-0---4-0---4-0---|
|-----3-----3-----3-----3-----3-----3-----3-----3-|
|-------------------------------------------------|
|-------------------------------------------------|
|-------------------------------------------------|
|-------------------------------------------------|#/9t2##/9t1#

#10t1##10t2#|-0-----0-----0-----0-----0-----0-----0-----0-----|
|---1-----1-----1-----1-----1-----1-----1-----1---|
|-----2-----2-----2-----2-----2-----2-----2-----2-|
|-------------------------------------------------|
|-------------------------------------------------|
|-------------------------------------------------|#/10t2##/10t1#


#11t1#Verse 1: x2 Guitar 1 (Guitar 2 mute)
#11t2#|--------------------------|
|--------------------------|
|--------------------------|
|-7----10---12---------9---|
|-7----10---12---------9---|
|-5-----8---10---------7---|#/11t2##/11t1#


Chorus: x8
Guitar 1:
#12t1##12t2#|--------------------------------|
|--------------------------------|
|--------------------------------|
|-10---12--------5---9-5--7------|
|-10---12--------5---9-5--7------|
|--8---10--------3---7-3--5------|#/12t2##/12t1#

#13t1#Guitar 2:
#13t2#|----------------8--7--5--8--7--5|
|--------------------------------|
|--------------------------------|
|--------------------------------|
|--------------------------------|
|--------------------------------|#/13t2##/13t1#

Composição: Colaboração e revisão: André Boto