busca

Prelude 3.0

Slipknot

Tom: C
|--------------------------|
|--------------------------|
|--------------------------|
|-7----10---12---------9---|
|-7----10---12---------9---|
|-5-----8---10---------7---|

Verse 2: x4
Guitar 1:
|--------------------------|
|--------------------------|
|--------------------------|
|-7----10---12---------9---|
|-7----10---12---------9---|
|-5-----8---10---------7---|

Guitar 2:
|-4-0---4-0---4-0---4-0---4-0---4-0---4-0---4-0---|
|-----3-----3-----3-----3-----3-----3-----3-----3-|
|-------------------------------------------------|
|-------------------------------------------------|
|-------------------------------------------------|
|-------------------------------------------------|

|-0-----0-----0-----0-----0-----0-----0-----0-----|
|---1-----1-----1-----1-----1-----1-----1-----1---|
|-----2-----2-----2-----2-----2-----2-----2-----2-|
|-------------------------------------------------|
|-------------------------------------------------|
|-------------------------------------------------|


Verse 1: x2 Guitar 1 (Guitar 2 mute)
|--------------------------|
|--------------------------|
|--------------------------|
|-7----10---12---------9---|
|-7----10---12---------9---|
|-5-----8---10---------7---|


Chorus: x4
Guitar 1:
|--------------------------------|
|--------------------------------|
|--------------------------------|
|-10---12--------5---9-5--7------|
|-10---12--------5---9-5--7------|
|--8---10--------3---7-3--5------|

Guitar 2:
|----------------8--7--5--8--7--5|
|--------------------------------|
|--------------------------------|
|--------------------------------|
|--------------------------------|
|--------------------------------|


Verse 2: x4
Guitar 1:
|--------------------------|
|--------------------------|
|--------------------------|
|-7----10---12---------9---|
|-7----10---12---------9---|
|-5-----8---10---------7---|

Guitar 2:
|-4-0---4-0---4-0---4-0---4-0---4-0---4-0---4-0---|
|-----3-----3-----3-----3-----3-----3-----3-----3-|
|-------------------------------------------------|
|-------------------------------------------------|
|-------------------------------------------------|
|-------------------------------------------------|

|-0-----0-----0-----0-----0-----0-----0-----0-----|
|---1-----1-----1-----1-----1-----1-----1-----1---|
|-----2-----2-----2-----2-----2-----2-----2-----2-|
|-------------------------------------------------|
|-------------------------------------------------|
|-------------------------------------------------|


Verse 1: x2 Guitar 1 (Guitar 2 mute)
|--------------------------|
|--------------------------|
|--------------------------|
|-7----10---12---------9---|
|-7----10---12---------9---|
|-5-----8---10---------7---|


Chorus: x8
Guitar 1:
|--------------------------------|
|--------------------------------|
|--------------------------------|
|-10---12--------5---9-5--7------|
|-10---12--------5---9-5--7------|
|--8---10--------3---7-3--5------|

Guitar 2:
|----------------8--7--5--8--7--5|
|--------------------------------|
|--------------------------------|
|--------------------------------|
|--------------------------------|
|--------------------------------|

Clipes

Cifra Club Pro

Aproveite o Cifra Club com benefícios exclusivos e sem anúncios
7 dias grátis
Cifra Club Pro
Aproveite o Cifra Club com benefícios exclusivos e sem anúncios
7 dias grátis