busca

Slipknot (album)

Slipknot

TUNING: B F# B E

Tracklisting:
1.742617000027
2(SIC)
3.EYELESS
4.WAIT AND BLEED
5.SURFACING
6.SPIT IT OUT
7.TATTERED AND TORN
8.ME INSIDE
9.LIBERATE
10.PROSTHETICS
11.NO LIFE
12.DILUTED
13.ONLY ONE
14.SCISSORS

1.742617000027

2.(SIC)

Tabbed By Davide Castagnone


INTRO
E |------------------------------------------------------|
B |------------------------------------------------------|
F#|------------------------------------------------------|
B |-0-0---0-0-0---0-0-0---0-0-0-1------------------------|


Variation at 21 seconds
E |------------------------------------------------------|
B |------------------------------------------------------|
F#|------------------------------------------------------|
B |--3-0-0-0-1-0-0-0-------------------------------------|


Verse
E |------------------------------------------------------|
B |------------------------------------------------------|
F#|------------------------------------------------------|
B |-1-0-0-1-0-1-0-1-0-1-4-3-0-6--------------------------|

Chorus
E |------------------------------------------------------|
B |------------------------------------------------------|
F#|-10--7--9--6------------------------------------------|
B |------------------------------------------------------|

Variation 2  1 min and 30 sec
E |------------------------------------------------------|
B |------------------------------------------------------|
F#|--5-----6---0-----------------------------------------|
B |----6-6---7-------------------------------------------|

Variation 3 1 min and 40 sec
E |------------------------------------------------------|
B |------------------------------------------------------|
F#|--5h-6-5h-6-------------------------------------------|
B |------------6-----------------------------------------|

Variation 4  1 min and 50 sec
E |------------------------------------------------------|
B |------------------------------------------------------|
F#|------------------------------------------------------|
B |--0-0-0-0-0-1-----------------------------------------|

Variation 5 1 min and 58 sec
E |------------------------------------------------------|
B |------------------------------------------------------|
F#|--------1---------------------------------------------|
B |--0-3-2---0-3-2---------------------------------------|

3.EYELESS

Tabbed By: Mark Valencia (corrected by Josh Wells)

Tuning: (B,E,A,D,G)

Intro:

G||--------------------------||
D||--------------------------||
A||--------------------------||
E||-------3------------------||
B||-0-0-1---0-1-0-0-1-0-0-1--||

Chorus:

G||---------------------------||
D||---------------------------||
A||---------------------------||
E||---------------------------||
B||-0-0-1-3-0-1-0-0-1-0-0-1---||

Verse:

G||----------------||
D||----------------||
A||----------------||
E||----------------||
B||-0-0-1-3-0-0-1--||

Fill:

G||-------------------------||
D||-------------------------||
A||-------------------------||
E||-------------------------||
B||-99-8-99-7-99-8-99-8-99--||

Break:

G||----------------------||
D||----------------------||
A||----------------------||
E||----------------------||
B||-0-0-0-6/0-0-1-0-0-1--||

Break 2:

G||----------||
D||----------||
A||----------||
E||---1------||
B||-0---3-4--||

(I changed "Break 2" to:
E||---1------||               E||----------||
B||-0---3-4--||  instead of   B||-0-6-3-4--||
Its just easier to play this way.)

4.WAIT AND BLEED

tabbed by trpelonchaspunk


Intro/Chorus
E------------------------------------------------------------|
B------------------------------------------------------------|
F#-----------------------------------------------------------|
B-0-0-0-7--7-7-7-1--1-1-1-8--8-8-8-0-------------------------|           x4


E--------------------------------------------------|
B--------------------------------------------------|
F#-------------------------------------------------|
B-0-1-0--------0-1-0-------------------------------|

Verse
E--------------------------------------------------|
B--------------------------------------------------|
F#-------------------------------------------------|
B-0-1-0-----0-1-0--1-4-1---0-1-0-----0-1-0--1-4-1--|


E--------------------------------------------------|
B--------------------------------------------------|
F#-------------------------------------------------|
B------3--7--0-1-0---0-1-0----3--7--0-1-0---0-1-0--|

Last Chorus
E--------------------------------------------------|
B--------------------------------------------------|
F#-------------------------------------------------|
B-0-0-0-7-7-7-7-1-1-1-1-1-1-1-1--------------------|

Outro
E--------------------------------------------------|
B--------------------------------------------------|
F#-------------------------------------------------|
B-0-1-0--0-1-0-4-1---0-1-0--0-1-0-4-1--------------|

5.SURFACING

TABBED BY DIABLOS91

Tuning: B E A D (low to high)

Intro
D----------------|
A----------------|

Clipes