This Cold Black

Slipknot

A
123
X02220
B
234
X24442
D
123
XX0232
E
123
022100
F#
234
244322
Tom: G
E ae galera....ficou meio extensa e naum tem o solo...e a afinação eh em Drop A......expero q gostem....

B||--------------------------|--------------------------|---|
F#||--------------------------|--------------------------|---|F#||--------------------------|--------------------------|
D||--------------------------|--------------------------|---|
A||--0--0--1--0--3--0--0--1--|--0--0--0--3--0--0--3--4--|---|
E||--------------------------|--------------------------|---|
A||--------------------------|--------------------------|---|
     Pm----------------------------------------------->

#1t1##1t2#--------------------------|--------------------------|
--------------------------|--------------------------|
--------------------------|--------------------------|
--0--0--1--0--3--0--0--1--|--0--0--0--3--0--0--3--4--|
--------------------------|--------------------------|
--------------------------|--------------------------|#/1t2##/1t1#
Pm--------------------------------------------------->

#2t1##2t2#--------------------------|--------------------------|
--------------------------|--------------------------|
--------------------------|--------------------------|
--0--0--1--0--3--0--0--1--|--0--0--0--3--0--0--3--4--|
--------------------------|--------------------------|
--------------------------|--------------------------|#/2t2##/2t1#
Pm------------------------------------------------>

#3t1##3t2#--------------------------|--------------------------|
--------------------------|--------------------------|
--------------------------|--------------------------|
--0--0--1--0--3--0--0--1--|--0--0--0--3--0--0--3--4--|
--------------------------|--------------------------|
--------------------------|--------------------------|#/3t2##/3t1#
Pm------------------------------------------------->

#4t1##4t2#|---------------------------|--------------------------|
|---------------------------|--------------------------|
|*--------------------------|--------------------------|
|*--0--0--1--0--3--0--0--1--|--0--0--0--3--0--0--3--4--|
|---------------------------|--------------------------|
|---------------------------|--------------------------|#/4t2##/4t1#
Pm------------------------------------------------->

#5t1##5t2#--------------------------|--------------------------|
--------------------------|--------------------------|
--------------------------|--------------------------|
--0--0--1--0--3--0--0--1--|--0--0--0--3--0--0--3--4--|
--------------------------|--------------------------|
--------------------------|--------------------------|#/5t2##/5t1#
Pm------------------------------------------------>

#6t1##6t2#--------------------------|--------------------------|
--------------------------|--------------------------|
--------------------------|--------------------------|
--0--0--1--0--3--0--0--1--|--0--0--0--3--0--0--3--4--|
--------------------------|--------------------------|
--------------------------|--------------------------|#/6t2##/6t1#
Pm------------------------------------------------>

#7t1##7t2#--------------------------|---------------------------||
--------------------------|---------------------------||
--------------------------|--------------------------*||
--0--0--1--0--3--0--0--1--|--0--0--0--3--0--0--3--4--*||
--------------------------|---------------------------||
--------------------------|---------------------------||#/7t2##/7t1#
Pm------------------------------------------------>

#8t1##8t2#--------------------|----------------------------|------------------------|
--------------------|----------------------------|------------------------|
*-------------------|----------------------------|------------------------|#/8t2##/8t1#
#9t1#*-------------------|----------------------------|------------------------|
#9t2#-------1----3----0--|--------------3p--1---------|--------1----3-------0--|
-0--0--1----3-0--0--|-----0--3--5---------4p--1--|--0--0--1----3----0--0--|
 .  .         .                                     .  .            .#/9t2##/9t1#

#10t1##10t2#----------------------------|------------------------|
----------------------------|------------------------|
----------------------------|------------------------|
----------------------------|------------------------|
--------------3p--1---------|--------1----3-------0--|
-----0--3--5---------4p--1--|--0--0--1----3----0--0--|
                               .  .            .#/10t2##/10t1#

#11t1##11t2#----------------------------|------------------------|
----------------------------|------------------------|
----------------------------|------------------------|
----------------------------|------------------------|
--------------3p--1---------|--------1----3-------0--|
-----0--3--5---------4p--1--|--0--0--1----3----0--0--|
                               .  .            .#/11t2##/11t1#

#12t1##12t2#-----------------------------||----------------------------|
-----------------------------||----------------------------|
----------------------------*||*---------------------------|
----------------------------*||*---------------------------|
--------------3p--1----------||---------6p--5--------------|
-----0--3--5---------4p--1---||---0--0---------0--0--0--0--|#/12t2##/12t1#
                                  .  .         Pm------>

#13t1##13t2#----------------------------|---------------------------|
----------------------------|---------------------------|
----------------------------|---------------------------|
----------------------------|---------------------------|
-----8p--4------------5--4--|--------6p--5--------------|
--0---------8--7h--8--------|--0--0---------0--0--0--0--|#/13t2##/13t1#
  .         .                  .  .         Pm------>

#14t1##14t2#-----------------------------|---------------------------|
-----------------------------|---------------------------|
-----------------------------|---------------------------|
-----------------------------|---------------------------|
-----8p--4------------5p--4--|--------6p--5--------------|
--0---------8--7h--8---------|--0--0---------0--0--0--0--|#/14t2##/14t1#
  .         .                   .  .         Pm------->

#15t1##15t2#-----------------------------|---------------------------|
-----------------------------|---------------------------|
-----------------------------|---------------------------|
-----------------------------|---------------------------|
-----8p--4------------5p--4--|--------6p--5--------------|
--0---------8--7h--8---------|--0--0---------0--0--0--0--|#/15t2##/15t1#
  .         .                   .  .         Pm------->

#16t1##16t2#------------------------------||--------------------------|
------------------------------||--------------------------|
-----------------------------*||--------------------------|
-----------------------------*||--------------------------|
-----8p--4------------5p--4---||--0--0--1--0--3--0--0--1--|
--0---------8--7h--8----------||--0--0--1--0--3--0--0--1--|#/16t2##/16t1#
  .         .                     Pm------------------>

#17t1##17t2#--------------------------|--------------------------|
--------------------------|--------------------------|
--------------------------|--------------------------|
--------------------------|--------------------------|
--0--0--0--3--0--0--3--4--|--0--0--1--0--3--0--0--1--|
--0--0--0--3--0--0--3--4--|--0--0--1--0--3--0--0--1--|#/17t2##/17t1#
Pm----------------------------------------------->

#18t1##18t2#--------------------------|--------------------------|
--------------------------|--------------------------|
--------------------------|--------------------------|
--------------------------|--------------------------|
--0--0--0--3--0--0--3--4--|--0--0--1--0--3--0--0--1--|
--0--0--0--3--0--0--3--4--|--0--0--1--0--3--0--0--1--|#/18t2##/18t1#
Pm------------------------------------------------>

#19t1##19t2#--------------------------|--------------------------|
--------------------------|--------------------------|
--------------------------|--------------------------|
--------------------------|--------------------------|
--0--0--0--3--0--0--3--4--|--0--0--1--0--3--0--0--1--|
--0--0--0--3--0--0--3--4--|--0--0--1--0--3--0--0--1--|#/19t2##/19t1#
Pm------------------------------------------------>

#20t1##20t2#--------------------------|---------------------------|
--------------------------|---------------------------|
--------------------------|---------------------------|
--------------------------|---------------------------|
--0--0--0--3--0--0--3--4--|--------6p--5--------------|
--0--0--0--3--0--0--3--4--|--0--0---------------------|#/20t2##/20t1#
 Pm----------------------------->

#21t1##21t2#----------------------------|---------------------------|
----------------------------|---------------------------|
----------------------------|---------------------------|
----------------------------|---------------------------|
--------5p--4--------4p--3--|--------6p--5--------------|
-----0------------0---------|--0--0---------------------|
     .            .            .  .#/21t2##/21t1#

#22t1##22t2#----------------------------|---------------------------|
----------------------------|---------------------------|
----------------------------|---------------------------|
----------------------------|---------------------------|
--------5p--4--------4p--3--|--------6p--5--------------|
-----0------------0---------|--0--0---------------------|
     .            .            .  .#/22t2##/22t1#

#23t1##23t2#----------------------------|---------------------------|
----------------------------|---------------------------|
----------------------------|---------------------------|
----------------------------|---------------------------|
--------5p--4--------4p--3--|--------6p--5--------------|
-----0------------0---------|--0--0---------------------|
     .            .            .  .#/23t2##/23t1#

#24t1##24t2#----------------------------|---------------------------|
----------------------------|---------------------------|
----------------------------|---------------------------|
----------------------------|---------------------------|
--------5p--4--------4p--3--|--------6p--5--------------|
-----0------------0---------|--0--0---------0--0--0--0--|#/24t2##/24t1#
     .            .            .  .         Pm------>

#25t1##25t2#------------------------------|---------------------------|
------------------------------|---------------------------|
------------------------------|---------------------------|
------------------------------|---------------------------|
--------5p--4----------4p--3--|--------6p--5--------------|
--0--0---------(0)--0---------|--0--0---------0--0--0--0--|#/25t2##/25t1#
  .  .          .   .            .  .         Pm------>

#26t1##26t2#------------------------------|---------------------------|
------------------------------|---------------------------|
------------------------------|---------------------------|
------------------------------|---------------------------|
--------5p--4----------4p--3--|--------6p--5--------------|
--0--0---------(0)--0---------|--0--0---------0--0--0--0--|#/26t2##/26t1#
  .  .          .   .            .  .         Pm------->

#27t1##27t2#------------------------------|---------------------------|
------------------------------|---------------------------|
------------------------------|---------------------------|
------------------------------|---------------------------|
--------5p--4----------4p--3--|--------6p--5--------------|
--0--0---------(0)--0---------|--0--0---------0--0--0--0--|#/27t2##/27t1#
  .  .          .   .            .  .         Pm------->

#28t1##28t2#---------------------------|-----------------------|-----------------------|
---------------------------|-----------------------|-----------------------|
---------------------------|-----------------------|-----------------------|
---------------------------|--6----6-------6-------|--6----6-------6-------|
-----5p--4----------4p--3--|--5----5-------5-------|--5----5-------5-------|
--0--0------(0)--0---------|-----------0-------0---|------------0-------0--|
  .  .       .   .                     .       .                .       .#/28t2##/28t1#

#29t1##29t2#------------------------|-------------------------|-----------------------|
------------------------|-------------------------|-----------------------|
------------------------|-------------------------|-----------------------|
------------------------|-------------------------|--6----6-------6-------|
--3--3----3--5--5----5--|--6--6----6--1--1--------|--5----5-------5-------|
--3--3----3--5--5----5--|--6--6----6--1--1--------|------------0----------|
                                                               .#/29t2##/29t1#

#30t1##30t2#-----------------------|-----------------------|-----------------------|
-----------------------|-----------------------|-----------------------|
-----------------------|-----------------------|-----------------------|
--6----6-------6-------|-----------------------|-----------------------|
--5----5-------5-------|--2------2-------------|--3------3-------------|
------------0-------0--|--2------2----0--0--0--|--3------3----0--0--0--|
                                      .  .  .                 .  .  .#/30t2##/30t1#

#31t1##31t2#-----------------------|-----------------------|------------------------|
-----------------------|-----------------------|------------------------|
-----------------------|-----------------------|------------------------|
--6----6-------6-------|--6----6-------6-------|------------------------|
--5----5-------5-------|--5----5-------5-------|--3--3----3--5--5----5--|
------------0-------0--|------------0-------0--|--3--3----3--5--5----5--|
            .       .               .       .#/31t2##/31t1#

#32t1##32t2#-------------------------|-----------------------|-----------------------|
-------------------------|-----------------------|-----------------------|
-------------------------|-----------------------|-----------------------|
-------------------------|--6----6-------6-------|--6----6-------6-------|
--6--6----6--1--1--------|--5----5-------5-------|--5----5-------5-------|
--6--6----6--1--1--------|------------0----------|------------0-------0--|
                                      .#/32t2##/32t1#

#33t1##33t2#-----------------------|-----------------------|--------------------------|
-----------------------|-----------------------|--------------------------|
-----------------------|-----------------------|--------------------------|
-----------------------|-----------------------|--------------------------|
--2------2-------------|--5------5-------------|--0--0--1--0--3--0--0--1--|
--2------2----0--0--0--|--5------5----0--0--0--|--0--0--1--0--3--0--0--1--|#/33t2##/33t1#
              .  .  .                 .  .  .     Pm----------------->

#34t1##34t2#--------------------------|--------------------------|
--------------------------|--------------------------|
--------------------------|--------------------------|
--------------------------|--------------------------|
--0--0--0--3--0--0--3--4--|--0--0--1--0--3--0--0--1--|
--0--0--0--3--0--0--3--4--|--0--0--1--0--3--0--0--1--|#/34t2##/34t1#
Pm------------------------------------------------->

#35t1##35t2#--------------------------|--------------------------|
--------------------------|--------------------------|
--------------------------|--------------------------|
--------------------------|--------------------------|
--0--0--0--3--0--0--3--4--|--0--0--1--0--3--0--0--1--|
--0--0--0--3--0--0--3--4--|--0--0--1--0--3--0--0--1--|#/35t2##/35t1#
Pm------------------------------------------------->

#36t1##36t2#--------------------------|--------------------------|
--------------------------|--------------------------|
--------------------------|--------------------------|
--------------------------|--------------------------|
--0--0--0--3--0--0--3--4--|--0--0--1--0--3--0--0--1--|
--0--0--0--3--0--0--3--4--|--0--0--1--0--3--0--0--1--|#/36t2##/36t1#
Pm------------------------------------------------->

#37t1##37t2#--------------------------|------------------------|-------------------------|
--------------------------|------------------------|-------------------------|
--------------------------|------------------------|-------------------------|
--------------------------|------------------------|-------------------------|
--0--0--0--3--0--0--3--4--|--------1----3-------0--|-----------3-------3--4--|
--0--0--0--3--0--0--3--4--|--0--0--1----3----0--0--|-----0--0--3----0--3--4--|#/37t2##/37t1#
Pm----------------------------->             .           .  .       .  

#38t1##38t2#---------------------------|----------------------------|
---------------------------|----------------------------|
---------------------------|----------------------------|
---------------------------|----------------------------|
--------6p--5--------------|-----8p--4------------5--4--|
--0--0---------0--0--0--0--|--0---------8--7h--8--------|
  .  .         .  .  .  .     .         .#/38t2##/38t1#

#39t1##39t2#---------------------|-------------------------|---------------------------|
---------------------|-------------------------|---------------------------|
---------------------|-------------------------|---------------------------|
---------------------|-------------------------|---------------------------|
------1---3------0---|-----------3-------3--4--|--------6p--5--------------|
0--0--1---3---0--0---|-----0--0--3----0--3--4--|--0--0---------0--0--0--0--|
.  .          .            .  .       .           .  .         .  .  .  .#/39t2##/39t1#

#40t1##40t2#-------------------------|------------------------|-------------------------|
-------------------------|------------------------|-------------------------|
-------------------------|------------------------|-------------------------|
-------------------------|------------------------|-------------------------|
--8p--4------------5--4--|--------1----3-------0--|-----------3-------3--4--|
0--------8--7h--8--------|--0--0--1----3----0--0--|-----0--0--3----0--3--4--|
.        .                  .  .            .           .  .       .#/40t2##/40t1#

#41t1##41t2#---------------------------|----------------------------|
---------------------------|----------------------------|
---------------------------|----------------------------|
---------------------------|----------------------------|
--------6p--5--------------|-----8p--4------------5--4--|
--0--0---------0--0--0--0--|--0---------8--7h--8--------|
  .  .         .  .  .  .     .         .#/41t2##/41t1#

#42t1##42t2#----------------------|-------------------------|---------------------------|
----------------------|-------------------------|---------------------------|
----------------------|-------------------------|---------------------------|
----------------------|-------------------------|---------------------------|
------1----3-------0--|-----------3-------3--4--|--------6p--5--------------|
0--0--1----3----0--0--|-----0--0--3----0--3--4--|--0--0---------0--0--0--0--|
.  .            .           .  .       .           .  .         .  .  .  .#/42t2##/42t1#

#43t1##43t2#----------------------------|---------------------------|
----------------------------|---------------------------|
----------------------------|---------------------------|
----------------------------|---------------------------|
-----8p--4------------5--4--|--------6p--5--------------|
--0---------8--7h--8--------|--0--0---------0--0--0--0--|
  .         .                  .  .         .  .  .  .#/43t2##/43t1#

#44t1##44t2#----------------------------|---------------------------|
----------------------------|---------------------------|
----------------------------|---------------------------|
----------------------------|---------------------------|
-----8p--4------------5--4--|--------6p--5--------------|
--0---------8--7h--8--------|--0--0---------0--0--0--0--|
  .         .                  .  .         .  .  .  .#/44t2##/44t1#

#45t1##45t2#----------------------------|---------------------------|
----------------------------|---------------------------|
----------------------------|---------------------------|
----------------------------|---------------------------|
-----8p--4------------5--4--|--------6p--5--------------|
--0---------8--7h--8--------|--0--0---------0--0--0--0--|
  .         .                  .  .         .  .  .  .#/45t2##/45t1#

#46t1##46t2#----------------------------|-----------------------|-----------------------|
----------------------------|-----------------------|-----------------------|
----------------------------|-----------------------|-----------------------|
----------------------------|--6----6-------6-------|--6----6-------6-------|
-----8p--4------------5--4--|--5----5-------5-------|--5----5-------5-------|
--0---------8--7h--8--------|------------0-------0--|------------0-------0--|
  .         .                            .       .               .       .#/46t2##/46t1#

#47t1##47t2#------------------------|-------------------------|-----------------------|
------------------------|-------------------------|-----------------------|
------------------------|-------------------------|-----------------------|
------------------------|-------------------------|--6----6-------6-------|
--3--3----3--5--5----5--|--6--6----6--1--1--------|--5----5-------5-------|
--3--3----3--5--5----5--|--6--6----6--1--1--------|------------0----------|
                                                               .#/47t2##/47t1#

#48t1##48t2#-----------------------|-----------------------|-----------------------|
-----------------------|-----------------------|-----------------------|
-----------------------|-----------------------|-----------------------|
--6----6-------6-------|-----------------------|-----------------------|
--5----5-------5-------|--2------2-------------|--3------3-------------|
------------0-------0--|--2------2----0--0--0--|--3------3----0--0--0--|
                                      .  .  .                 .  .  .#/48t2##/48t1#

#49t1##49t2#-----------------------|-----------------------|------------------------|
-----------------------|-----------------------|------------------------|
-----------------------|-----------------------|------------------------|
--6----6-------6-------|--6----6-------6-------|------------------------|
--5----5-------5-------|--5----5-------5-------|--3--3----3--5--5----5--|
------------0-------0--|------------0-------0--|--3--3----3--5--5----5--|
            .       .               .       .#/49t2##/49t1#

#50t1##50t2#-------------------------|-----------------------|-----------------------|
-------------------------|-----------------------|-----------------------|
-------------------------|-----------------------|-----------------------|
-------------------------|--6----6-------6-------|--6----6-------6-------|
--6--6----6--1--1--------|--5----5-------5-------|--5----5-------5-------|
--6--6----6--1--1--------|------------0----------|------------0-------0--|
                                      .#/50t2##/50t1#

#51t1##51t2#-----------------------|-----------------------|--------------------------|
-----------------------|-----------------------|--------------------------|
-----------------------|-----------------------|--------------------------|
-----------------------|-----------------------|--------------------------|
--2------2-------------|--5------5-------------|--0--0--1--0--3--0--0--1--|
--2------2----0--0--0--|--5------5----0--0--0--|--0--0--1--0--3--0--0--1--|#/51t2##/51t1#
              .  .  .                 .  .  .     Pm-------------------->

#52t1##52t2#--------------------------|--------------------------|
--------------------------|--------------------------|
--------------------------|--------------------------|
--------------------------|--------------------------|
--0--0--0--3--0--0--3--4--|--0--0--1--0--3--0--0--1--|
--0--0--0--3--0--0--3--4--|--0--0--1--0--3--0--0--1--|#/52t2##/52t1#
Pm------------------------------------------------->

#53t1##53t2#--------------------------|--------------------------|
--------------------------|--------------------------|
--------------------------|--------------------------|
--------------------------|--------------------------|
--0--0--0--3--0--0--3--4--|--0--0--1--0--3--0--0--1--|
--0--0--0--3--0--0--3--4--|--0--0--1--0--3--0--0--1--|#/53t2##/53t1#
Pm------------------------------------------------->

#54t1##54t2#--------------------------|--------------------------|
--------------------------|--------------------------|
--------------------------|--------------------------|
--------------------------|--------------------------|
--0--0--0--3--0--0--3--4--|--0--0--1--0--3--0--0--1--|
--0--0--0--3--0--0--3--4--|--0--0--1--0--3--0--0--1--|#/54t2##/54t1#
Pm------------------------------------------------->

#55t1##55t2#--------------------------|-------------------------|-------------------------|
--------------------------|-------------------------|-------------------------|
--------------------------|-------------------------|-------------------------|
--------------------------|-------------------------|-------------------------|
--0--0--0--3--0--0--3--4--|--6----6--6--6--6--6--6--|--3----3--3--3--3--3--3--|
--0--0--0--3--0--0--3--4--|--6----6--6--6--6--6--6--|--3----3--3--3--3--3--3--|#/55t2##/55t1#
Pm--------------------->         Pm--------------->          Pm------------>

#56t1##56t2#--------------------------|--------------------------|-------------------------|
--------------------------|--------------------------|-------------------------|
--------------------------|--------------------------|-------------------------|
--------------------------|--------------------------|-------------------------|
--0--0--1--0--3--0--0--1--|--0--0--0--3--0--0--3--4--|--6----6--6--6--6--6--6--|
--0--0--1--0--3--0--0--1--|--0--0--0--3--0--0--3--4--|--6----6--6--6--6--6--6--|#/56t2##/56t1#

Pm------------------------------------------------>          Pm------------->

#57t1##57t2#-------------------------|--------------------------|--------------------------|
-------------------------|--------------------------|--------------------------|
-------------------------|--------------------------|--------------------------|
-------------------------|--------------------------|--------------------------|
--3----3--3--3--3--3--3--|--0--0--1--0--3--0--0--1--|--0--0--0--3--0--0--3--4--|
--3----3--3--3--3--3--3--|--0--0--1--0--3--0--0--1--|--0--0--0--3--0--0--3--4--|#/57t2##/57t1#
       Pm------------------------------------------------------------------->

#58t1##58t2#--------------------------|--------------------------|------------------------|
--------------------------|--------------------------|------------------------|
--------------------------|--------------------------|------------------------|
--------------------------|--------------------------|------------------------|
--0--0--1--0--3--0--0--1--|--0--0--0--3--0--0--3--4--|------------------------|
--0--0--1--0--3--0--0--1--|--0--0--0--3--0--0--3--4--|--3--3--2--2--6----5----|#/58t2##/58t1#
Pm------------------------------------------------------------------------>

#59t1##59t2#-------------------------|------------------------|-------------------------|
-------------------------|------------------------|-------------------------|
-------------------------|------------------------|-------------------------|
-------------------------|------------------------|-------------------------|
-------------------------|------------------------|-------------------------|
--0----2--2--3--3--2--2--|--3--3--2--2--6----5----|--0----2--2--3--3--2--2--|#/59t2##/59t1#
Pm----------------------------------------------------------------------->

#60t1##60t2#------------------------|-------------------------|--------------------------|
------------------------|-------------------------|--------------------------|
------------------------|-------------------------|--------------------------|
------------------------|-------------------------|--------------------------|
------------------------|-------------------------|--------------------------|
--3--3--2--2--6----5----|--0----2--2--3--3--2--2--|--3--3--2--2--6--6--5--5--|#/60t2##/60t1#
Pm------------------------------------------------------------------------>

#61t1##61t2#--------------------------|----------------------|----------------------|
--------------------------|----------------------|----------------------|
--------------------------|----------------------|----------------------|
--------------------------|----------------------|----------------------|
--------------------------|--3----2----6----5----|--0----2----3----2----|
--0--0--2--2--3--3--2--2--|--3----2----6----5----|--0----2----3----2----|#/61t2##/61t1#
  Pm------------------->

#62t1##62t2#----------------------|----------------------|----------------------|
----------------------|----------------------|----------------------|
----------------------|----------------------|----------------------|
----------------------|----------------------|----------------------|
--3----2----6----5----|--0----2----3----2----|--3----2----6----5----|
--3----2----6----5----|--0----2----3----2----|--3----2----6----5----|#/62t2##/62t1#

#63t1##63t2#----------------------|----------------------|----------------------|
----------------------|----------------------|----------------------|
----------------------|----------------------|----------------------|
----------------------|----------------------|----------------------|
--0----2----3----2----|--3----2----6----5----|--0----2----3----2----|
--0----2----3----2----|--3----2----6----5----|--0----2----3----2----|#/63t2##/63t1#

#64t1##64t2#-----------------------|-----------------------|------------------------|
-----------------------|-----------------------|------------------------|
-----------------------|-----------------------|------------------------|
--6----6-------6-------|--6----6-------6-------|------------------------|
--5----5-------5-------|--5----5-------5-------|--3--3----3--5--5----5--|
------------0-------0--|------------0-------0--|--3--3----3--5--5----5--|
            .       .               .       .#/64t2##/64t1#

#65t1##65t2#-------------------------|-----------------------|-----------------------|
-------------------------|-----------------------|-----------------------|
-------------------------|-----------------------|-----------------------|
-------------------------|--6----6-------6-------|--6----6-------6-------|
--6--6----6--1--1--------|--5----5-------5-------|--5----5-------5-------|
--6--6----6--1--1--------|------------0----------|------------0-------0--|
                                      .#/65t2##/65t1#

#66t1##66t2#-----------------------|-----------------------|-----------------------|
-----------------------|-----------------------|-----------------------|
-----------------------|-----------------------|-----------------------|
-----------------------|-----------------------|--6----6-------6-------|
--2------2-------------|--3------3-------------|--5----5-------5-------|
--2------2----0--0--0--|--3------3----0--0--0--|------------0-------0--|
              .  .  .                 .  .  .               .       .#/66t2##/66t1#

#67t1##67t2#-----------------------|------------------------|-------------------------|
-----------------------|------------------------|-------------------------|
-----------------------|------------------------|-------------------------|
--6----6-------6-------|------------------------|-------------------------|
--5----5-------5-------|--3--3----3--5--5----5--|--6--6----6--1--1--------|
------------0-------0--|--3--3----3--5--5----5--|--6--6----6--1--1--------|
            .       .#/67t2##/67t1#

#68t1##68t2#-----------------------|-----------------------|-----------------------|
-----------------------|-----------------------|-----------------------|
-----------------------|-----------------------|-----------------------|
--6----6-------6-------|--6----6-------6-------|-----------------------|
--5----5-------5-------|--5----5-------5-------|--2------2-------------|
------------0----------|------------0-------0--|--2------2----0--0--0--|
            .                                                 .  .  .#/68t2##/68t1#

#69t1##69t2#-----------------------|-----------------------|-----------------------|
-----------------------|-----------------------|-----------------------|
-----------------------|-----------------------|-----------------------|
-----------------------|--6----6-------6-------|--6----6-------6-------|
--5------5-------------|--5----5-------5-------|--5----5-------5-------|
--5------5----0--0--0--|------------0-------0--|------------0-------0--|
              .  .  .               .       .               .       .#/69t2##/69t1#

#70t1##70t2#------------------------|-------------------------|-----------------------|
------------------------|-------------------------|-----------------------|
------------------------|-------------------------|-----------------------|
------------------------|-------------------------|--6----6-------6-------|
--3--3----3--5--5----5--|--6--6----6--1--1--------|--5----5-------5-------|
--3--3----3--5--5----5--|--6--6----6--1--1--------|------------0----------|
                                                               .#/70t2##/70t1#

#71t1##71t2#-----------------------|-----------------------|-----------------------|
-----------------------|-----------------------|-----------------------|
-----------------------|-----------------------|-----------------------|
--6----6-------6-------|-----------------------|-----------------------|
--5----5-------5-------|--2------2-------------|--3------3-------------|
------------0-------0--|--2------2----0--0--0--|--3------3----0--0--0--|
                                      .  .  .                 .  .  .#/71t2##/71t1#

#72t1##72t2#-----------------------|-----------------------|------------------------|
-----------------------|-----------------------|------------------------|
-----------------------|-----------------------|------------------------|
--6----6-------6-------|--6----6-------6-------|------------------------|
--5----5-------5-------|--5----5-------5-------|--3--3----3--5--5----5--|
------------0-------0--|------------0-------0--|--3--3----3--5--5----5--|
            .       .               .       .#/72t2##/72t1#

#73t1##73t2#-------------------------|-----------------------|-----------------------|
-------------------------|-----------------------|-----------------------|
-------------------------|-----------------------|-----------------------|
-------------------------|--6----6-------6-------|--6----6-------6-------|
--6--6----6--1--1--------|--5----5-------5-------|--5----5-------5-------|
--6--6----6--1--1--------|------------0----------|------------0-------0--|
                                      .         #/73t2##/73t1#

#74t1##74t2#-----------------------|-----------------------|------------------------|
-----------------------|-----------------------|------------------------|
-----------------------|-----------------------|------------------------|
-----------------------|-----------------------|------------------------|
--2------2-------------|--5------5-------------|--------1----3-------0--|
--2------2----0--0--0--|--5------5----0--0--0--|--0--0--1----3----0--0--|
              .  .  .                 .  .  .     .  .            .#/74t2##/74t1#

#75t1##75t2#----------------------------|------------------------|
----------------------------|------------------------|
----------------------------|------------------------|
----------------------------|------------------------|
--------------3p--1---------|--------1----3-------0--|
-----0--3--5---------4p--1--|--0--0--1----3----0--0--|
                               .  .            .#/75t2##/75t1#

#76t1##76t2#----------------------------|------------------------|
----------------------------|------------------------|
----------------------------|------------------------|
----------------------------|------------------------|
--------------3p--1---------|--------1----3-------0--|
-----0--3--5---------4p--1--|--0--0--1----3----0--0--|
                               .  .            .#/76t2##/76t1#

#77t1##77t2#----------------------------|------------------------|
----------------------------|------------------------|
----------------------------|------------------------|
----------------------------|------------------------|
--------------3p--1---------|--------1----3-------0--|
-----0--3--5---------4p--1--|--0--0--1----3----0--0--|
                               .  .            .#/77t2##/77t1#

#78t1##78t2#----------------------------|------------------------|
----------------------------|------------------------|
----------------------------|------------------------|
----------------------------|------------------------|
--------------3p--1---------|--------1----3-------0--|
-----0--3--5---------4p--1--|--0--0--1----3----0--0--|
                               .  .            .#/78t2##/78t1#

#79t1##79t2#----------------------------|------------------------|
----------------------------|------------------------|
----------------------------|------------------------|
----------------------------|------------------------|
--------------3p--1---------|--------1----3-------0--|
-----0--3--5---------4p--1--|--0--0--1----3----0--0--|
                               .  .            .#/79t2##/79t1#

#80t1##80t2#----------------------------|------------------------|
----------------------------|------------------------|
----------------------------|------------------------|
----------------------------|------------------------|
--------------3p--1---------|--------1----3-------0--|
-----0--3--5---------4p--1--|--0--0--1----3----0--0--|
                               .  .            .#/80t2##/80t1#

#81t1##81t2#----------------------------|------------------------|
----------------------------|------------------------|
----------------------------|------------------------|
----------------------------|------------------------|
--------------3p--1---------|--------1----3-------0--|
-----0--3--5---------4p--1--|--0--0--1----3----0--0--|
                               .  .            .#/81t2##/81t1#

#82t1##82t2#----------------------------||
----------------------------||
----------------------------||
----------------------------||
--------------3p--1---------||
-----0--3--5---------4p--1--||#/82t2##/82t1#
Composição: Colaboração e revisão: Rafael santana