Three Nil

Slipknot

Tom: G
Tabbed By: Shadow6477

Tuning: Drop B (low to high) B,F#,B,E,G#,C#

Keys
.=Palm Mute
b=Bend
t=Tremolo Picking
h=hammer-on
p=pulloff
\=slide up
/=slide down
*=Natural Harmonic

This song starts with a quick drum intro and then the guitars kick in.

#1t1#Intro pt.1 - Both Gtr.
#1t2#C#|----------------------------------|
G#|----------------------------------|
E |----------------------------------|
B |-1/9-0-3-2------------------------|  X8
F#|-1/9-0-3-2-2/-t5t0t6\1------------|
B |-1/9-0-3-2------------------------|#/1t2##/1t1#

#2t1#Intro pt.2 - Both Gtr.
#2t2#C#|----------------------------------|
G#|----------------------------------|
E |----------------------------------|
B |-1/9-0-3-2-2/-t5t0t6\1------------|  X8
F#|-1/9-0-3-2------------------------|
B |-1/9-0-3-2------------------------|#/2t2##/2t1#

Pre-Verse Riff - Both Gtr.

#3t1##3t2#C#|------------------------------------------|
G#|------------------------------------------|
E |------------------------------------------|
B |------------------------------------------|  X8   
F#|------------------------------------------|                                                 
B |-0-3\2-0-1b-0--0-3\2-0-1b-0-00-1b-0-------|                       
PM  .     .       .     .      ..#/3t2##/3t1#

Gtr 1 Pre-Verse riff 2

#4t1##4t2#C#|------------------------------------------|
G#|------------------------------------------|
E |------------------------------------------|
B |------------------------------------------|  
F#|------------------------------------------|
B |-1\4h3p-h1p0p-0-3-6-3-0-4-7-4-0-3---------|#/4t2##/4t1#

Gtr. 1 starts with Pre-Verse Riff 2 and then Gtr. 2 comes in and they both play Pre-Verse Riff 3 

Both Gtr. Pre-Verse Riff 3 

#5t1##5t2#C#|------------------------------------------|
G#|------------------------------------------|
E |------------------------------------------|
B |------------------------------------------|
F#|------------------------------------------|
B |-0-4-3-0-1-0-0-3-6-3-0-4-7-4-0-3----------|#/5t2##/5t1#

Verse Riff

#6t1##6t2#C#|------------------------------------------|
G#|------------------------------------------|
E |------------------------------------------|
B |------------------------------------------|
F#|-------------0-3-6-3-0-4-7-4-0-3----------|
B |-0-4/3-0-1p0-0-3-6-3-0-4-7-4-0-3----------|
PM  .     .     . . . . . . . . . .#/6t2##/6t1#

Pre-Chorus Fill In

#7t1##7t2#C#|-------------------------------------------------------------|
G#|-------------------------------------------------------------|
E |-------------------------------------------------------------|
B |-0-4-3-1-0----0-1-0--0-1-0-4-3-1-0--0-1-0-0--0-4-3-0---------| 
F#|-0-4-3-1-0----0-1-0--0-1-0-4-3-1-0--0-1-0-0--0-4-3-0---------| 
B |-0-4-3-1-0----0-1-0--0-1-0-4-3-1-0--0-1-0-0--0-4-3-0---------|#/7t2##/7t1#

Im not sure about the last 4 chords of the Prechorus Fill In you cant hear the guitars that 
well which sucks
 
The Pre-Chorus Fill In leads back into what is a variation of the Pre-Verse Riff

Pre-Verse Riff - Both Gtr.

#8t1##8t2#C#|-------------------------------------------------------------|
G#|-------------------------------------------------------------|
E |-------------------------------------------------------------|
B |-------------------------------------------------------------|     
F#|-------------------------------------------------------------|                                                 
B |-0-3\2-0-1b-0--0-3\2-0-1b-0-00-1b-0-0-3\2-0-1b-0-0-3\2-0-0---|                       
PM  .     .       .     .      ..      .     .      .     .#/8t2##/8t1#

After the Pre-Verse Riff variation the guitars stop for a sec and then comes the Pre-Chorus Riff 2 
which is described below

#9t1##9t2#C#|-------------------------------------------------------------|
G#|-------------------------------------------------------------|
E |-------------------------------------------------------------|
B |-------------------------------------------------------------| X2     
F#|---t2-t3-----t5-t6-t2----------------------------------------|
B |-t2-----t3-t5------------------------------------------------|#/9t2##/9t1#

They do this twice and then the riff switches to this riff

#10t1##10t2#C#|-------------------------------------------------------------|
G#|-------------------------------------------------------------|
E |-------------------------------------------------------------|
B |-------------------------------------------------------------| X2     
F#|---t5-t6-----t8-t9-t5----------------------------------------|
B |-t5-----t6-t8------------------------------------------------|#/10t2##/10t1#

Here its pretty much the same Riff except they are Palm Muted Chords

#11t1##11t2#C#|-------------------------------------------------------------|
G#|-------------------------------------------------------------|
E |-------------------------------------------------------------|
B |---4-5-----7-8-4---------------------------------------------|     
F#|-2-2-3-3-5-5-6-2---------------------------------------------| X2
B |-2-----3-5---------------------------------------------------|
PM  . . . . . . . . #/11t2##/11t1#

#12t1##12t2#C#|-------------------------------------------------------------|
G#|-------------------------------------------------------------|
E |-------------------------------------------------------------|
B |---7-8-----10-11-7-------------------------------------------|     
F#|-5-5-6-6-8-8--9--5-------------------------------------------| X2
B |-5-----6-8---------------------------------------------------|
PM  . . . . . . . . .#/12t2##/12t1#

And then it goes back to the Pre-Verse Riff 

Pre-Verse Riff - Both Gtr.

#13t1##13t2#C#|------------------------------------------|
G#|------------------------------------------|
E |------------------------------------------|
B |------------------------------------------|  X2
F#|------------------------------------------|                                                 
B |-0-3\2-0-1b-0--0-3\2-0-1b-0-00-1b-0-------|                       
PM  .     .       .     .      ..#/13t2##/13t1#

After the Pre-Verse Riff they do this fill in

#14t1##14t2#C#|-------------------------------------------------------|
G#|-------------------------------------------------------|
E |-------------------------------------------------------|
B |-------------------------------------------------------|
F#|----------------------------00--00--00-0-5-0-6/--------|                                                 
B |-0-3\2-0-1b-0--0-3\2-0-1b-0-00--00--00-0-5-0-6/--------|
PM  .     .       .     .      ..  ..  .. .   . #/14t2##/14t1#

Verse Riff 2

#15t1##15t2#C#|-------------------------------------------------------|
G#|-------------------------------------------------------|
E |-------------------------------------------------------|
B |-------------------------------------------------------|
F#|-1-4-3------0-4-3------0-------------------------------|                                                 
B |-1-4-3-1p-0-0-4-3-1p-0-0-1p-0--------------------------|
PM  . . .      . . .      .#/15t2##/15t1#
 
End The Riff On these notes (which r the first two of Verse Riff 2) 

#16t1##16t2#C#|-------------------------------------------------------|
G#|-------------------------------------------------------|
E |-------------------------------------------------------|
B |-------------------------------------------------------|
F#|-1-4-3-------------------------------------------------|                                                 
B |-1-4-3-------------------------------------------------|
PM  . . .#/16t2##/16t1#

then it goes back to the Pre-Chorus Riff

#17t1##17t2#C#|-------------------------------------------------------------|
G#|-------------------------------------------------------------|
E |-------------------------------------------------------------|
B |-------------------------------------------------------------| X2     
F#|---t2-t3-----t5-t6-t2----------------------------------------|
B |-t2-----t3-t5------------------------------------------------|#/17t2##/17t1#

#18t1##18t2#C#|-------------------------------------------------------------|
G#|-------------------------------------------------------------|
E |-------------------------------------------------------------|
B |-------------------------------------------------------------| X2     
F#|---t5-t6-----t8-t9-t5----------------------------------------|
B |-t5-----t6-t8------------------------------------------------|#/18t2##/18t1#

#19t1##19t2#C#|-------------------------------------------------------------|
G#|-------------------------------------------------------------|
E |-------------------------------------------------------------|
B |---4-5-----7-8-4---------------------------------------------|     
F#|-2-2-3-3-5-5-6-2---------------------------------------------| X2
B |-2-----3-5---------------------------------------------------|
PM  . . . . . . . . #/19t2##/19t1#

#20t1##20t2#C#|-------------------------------------------------------------|
G#|-------------------------------------------------------------|
E |-------------------------------------------------------------|
B |---7-8-----10-11-7-------------------------------------------|     
F#|-5-5-6-6-8-8--9--5-------------------------------------------| X2
B |-5-----6-8---------------------------------------------------|
PM  . . . . . . . . .#/20t2##/20t1#

And then finally it goes to the Chorus

Gtr 2

#21t1##21t2#C#|------------------------------------------------------------------------------------|
G#|------------------------------------------------------------------------------------|
E |------------------------------------------------------------------------------------|
B |------------------------------------------------------------------------------------|     
F#|------------------------------------------------------------------------------------|
B |-10-0-0000000000-10-0-0000000000--2-3-3333333333\5-6-6666666666---------------------|#/21t2##/21t1#

Gtr 1

#22t1##22t2#C#|------------------------------------------------------------------------------------|
G#|------------------------------------------------------------------------------------|
E |------------------------------------------------------------------------------------|
B |------------------------------------------------------------------------------------|     
F#|---------------------------------------------------------------------3\*12----------|
B |-10-0-0000000000-10-0-0000000000--2-3-3333333333\5-6-6666666666---------------------|#/22t2##/22t1#

Gtr 2

#23t1##23t2#C#|------------------------------------------------------------------------------------|
G#|------------------------------------------------------------------------------------|
E |------------------------------------------------------------------------------------|
B |------------------------------------------------------------------------------------|     
F#|------------------------------------------------------------------------------------|
B |-10-0-0000000000-10-0-0000000000--2-3-3333333333\5-6-6666666666---------------------|#/23t2##/23t1#

Gtr 1

#24t1##24t2#C#|------------------------------------------------------------------------------------|
G#|------------------------------------------------------------------------------------|
E |-----------5\777/55-----------5\777/55----------------------------------------------|
B |-----------x\xxx/xx-----------x\xxx/xx----------------------------------------------|     
F#|-----------3\555/33-----------3\555/33------------------------------------3\*12-----|
B |-10-0-0000----------10-0-0000----------2-3-3333333333\5-6-6666666666----------------|#/24t2##/24t1#

Breakdown

Gtr 2

#25t1##25t2#C#|----------------------------------|
G#|----------------------------------|
E |----------------------------------|
B |-1/9-0----------------------------|
F#|-1/9-0----------------------------|
B |-1/9-0----------------------------|#/25t2##/25t1#

Gtr 1

#26t1##26t2#C#|----------------------------------|
G#|----------------------------------|
E |----------------------------------|
B |-1/9-0-3-2------------------------|  
F#|-1/9-0-3-2-2/-t5t0t6\1------------|
B |-1/9-0-3-2------------------------|#/26t2##/26t1#

After awhile both guitars play the Pre-Bridge, and then after a short fill in with the 
bass and drums the Bridge Riff comes in

Bridge Riff

Both Gtr.

#27t1##27t2#C#|----------------------------------|
G#|----------------------------------|
E |----------------------------------|
B |----------------------------------|  
F#|-1-3-0-3-0-5-0-6------------------|
B |-1-3-0-3-0-5-0-6------------------|
PM  . . .   .   .#/27t2##/27t1#

Bridge Riff 2

#28t1##28t2#C#|----------------------------------|
G#|----------------------------------|
E |----------------------------------|
B |----------------------------------|  
F#|-1\3-0-3-0-5-3-6------------------|
B |-1\3-0-3-0-5-3-6------------------|
PM         . . . .#/28t2##/28t1#

#29t1##29t2#C#|----------------------------------|
G#|----------------------------------|
E |---------777\8/666----------------|
B |---------xxx\x/xxx----------------|  
F#|-1\3-0-3-555\6/444----------------|
B |-1\3-0-3--------------------------|
PM         #/29t2##/29t1#

Gtr 2

#30t1##30t2#C#|------------------------------------------------------------------------------------|
G#|------------------------------------------------------------------------------------|
E |------------------------------------------------------------------------------------|
B |------------------------------------------------------------------------------------|     
F#|------------------------------------------------------------------------------------|
B |-10-0-0000000000-10-0-0000000000--2-3-3333333333\5-6-6666666666---------------------|#/30t2##/30t1#

Gtr 1

#31t1##31t2#C#|------------------------------------------------------------------------------------|
G#|------------------------------------------------------------------------------------|
E |------------------------------------------------------------------------------------|
B |------------------------------------------------------------------------------------|     
F#|---------------------------------------------------------------------3\*12----------|
B |-10-0-0000000000-10-0-0000000000--2-3-3333333333\5-6-6666666666---------------------|#/31t2##/31t1#

Gtr 2

#32t1##32t2#C#|------------------------------------------------------------------------------------|
G#|------------------------------------------------------------------------------------|
E |------------------------------------------------------------------------------------|
B |------------------------------------------------------------------------------------|     
F#|------------------------------------------------------------------------------------|
B |-10-0-0000000000-10-0-0000000000--2-3-3333333333\5-6-6666666666---------------------|#/32t2##/32t1#

Gtr 1

#33t1##33t2#C#|------------------------------------------------------------------------------------|
G#|------------------------------------------------------------------------------------|
E |-----------5\777/55-----------5\777/55----------------------------------------------|
B |-----------x\xxx/xx-----------x\xxx/xx----------------------------------------------|     
F#|-----------3\555/33-----------3\555/33------------------------------------3\*12-----|
B |-10-0-0000----------10-0-0000----------2-3-3333333333\5-6-6666666666----------------|#/33t2##/33t1#


#34t1##34t2#C#|-------------------------------------------------------------|
G#|-------------------------------------------------------------|
E |-------------------------------------------------------------|
B |-------------------------------------------------------------| X4 
F#|---t2-t3-----t5-t6-t2----------------------------------------|
B |-t2-----t3-t5------------------------------------------------|#/34t2##/34t1#

They change the Riff here....

#35t1##35t2#C#|-------------------------------------------------------------|
G#|-------------------------------------------------------------|
E |-------------------------------------------------------------|
B |----t9-t10--------t7-8---------------------------------------| X4     
F#|-t7--------t9-t10------t9------------------------------------|
B |-------------------------------------------------------------|#/35t2##/35t1#

Outro Riff

#36t1##36t2#C#|-------------------------------------------------------------|
G#|-------------------------------------------------------------|
E |-------------------------------------------------------------|
B |-------------------------------------------------------------| 
F#|-1\3-0-3-1-5-3-6---------------------------------------------|
B |-1\3-0-3-1-5-3-6---------------------------------------------|
PM      . . . . . #/36t2##/36t1#

#37t1##37t2#C#|-------------------------------------------------------------|
G#|-------------------------------------------------------------|
E |-------------------------------------------------------------|
B |-------------------------------------------------------------| 
F#|-1\3-0-3-1-5-3-5-6-------------------------------------------|
B |-1\3-0-3-1-5-3-5-6-------------------------------------------|
PM      . . . . . . .#/37t2##/37t1#

End song on this

#38t1##38t2#C#|-------------------------------------------------------------|
G#|-------------------------------------------------------------|
E |-------------------------------------------------------------|
B |-------------------------------------------------------------| 
F#|-1\3-0-3-1-5-3-6---------------------------------------------|
B |-1\3-0-3-1-5-3-6---------------------------------------------|
PM      . . . . . #/38t2##/38t1#
Composição: Colaboração e revisão: