busca

Anthem

blink-182

Tom: C
[Intro] B5  B5  B5  B5  
        E5  F#5  E5  F#5 

E|-----------| -----------|-----------|-----------|
B|-----------| -----------|-----------|-----------|
G|-4-4-4-4-4-| -4-4-4-4-4-|-8-8-8-8-8-|-8-8-8-8-8-|
D|-x-x-x-x-x-| -x-x-x-x-x-|-x-x-x-x-x-|-x-x-x-x-x-|
A|-2-2-2-2-2-| -2-2-2-2-2-|-6-6-6-6-6-|-6-6-6-6-6-|
E|-----------| -----------|-----------|-----------|

E|-----------| -----------|-----------|-----------|
B|-----------| -----------|-----------|-----------|
G|-9-9-9-9-9-| -6-6-6-6-6-|-9-9-9-9-9-|-6-6-6-6-6-|
D|-x-x-x-x-x-| -x-x-x-x-x-|-x-x-x-x-x-|-x-x-x-x-x-|
A|-7-7-7-7-7-| -4-4-4-4-4-|-7-7-7-7-7-|-4-4-4-4-4-|
E|-----------| -----------|-----------|-----------|

[Verso 01]

E|-----------| -----------|-----------|-----------|
B|-----------| -----------|-----------|-----------|
G|-4-4-4-4-4-| -4-4-4-4-4-|-8-8-8-8-8-|-8-8-8-8-8-|
D|-x-x-x-x-x-| -x-x-x-x-x-|-x-x-x-x-x-|-x-x-x-x-x-|
A|-2-2-2-2-2-| -2-2-2-2-2-|-6-6-6-6-6-|-6-6-6-6-6-|
E|-----------| -----------|-----------|-----------|

E|-----------| -----------|-----------|-----------|
B|-----------| -----------|-----------|-----------|
G|-9-9-9-9-9-| -6-6-6-6-6-|-9-9-9-9-9-|-6-6-6-6-6-|
D|-x-x-x-x-x-| -x-x-x-x-x-|-x-x-x-x-x-|-x-x-x-x-x-|
A|-7-7-7-7-7-| -4-4-4-4-4-|-7-7-7-7-7-|-4-4-4-4-4-|
E|-----------| -----------|-----------|-----------|

B5
Home show mom wont know
E5               F#5
Run out the back door
     E5                F#5
He's passed out on the floor
B5                       
Third time, been caught twice
   E5                F#5
Forgive our neighbor Bob
  E5                  F#5
I think he humped the dog

[Pré Refrão]

   G#5      F#5      E5       F#5
E|---------------------------------------|
B|--------------------------------------|
G|--------------------------------------|
D|-6-6-6-6--4-4-4-4--2-2-2-2--4-4-4-4---|
A|-6-6-6-6--4-4-4-4--2-2-2-2--4-4-4-4---|
E|-4-4-4-4--2-2-2-2--0-0-0-0--2-2-2-2---|

G#5               F#5
  But good things come
             E5
to those who wait
          F#5
Cause she laid me
G#5            F#5
  And mom and dad
            E5
possess the key
         F#5
Instant slavery
G#5           F#5
  No need explain the plan
   E5           F#5
No need to even bother
G#5            F#5
  I'll pack my bags
             E5
I swear I'll run
        F#5
Wish my friends
were twenty-one

E|-----------| -----------|-----------|-----------|
B|-----------| -----------|-----------|-----------|
G|-4-4-4-4-4-| -4-4-4-4-4-|-4-4-4-4-4-|-----------|
D|-x-x-x-x-x-| -x-x-x-x-x-|-x-x-x-x-x-|-2~~~~-----|
A|-2-2-2-2-2-| -2-2-2-2-2-|-2-2-2-2-2-|-2~~~~-----|
E|-----------| -----------|-----------|-0~~~~-----|

[Verso 02]

E|-----------| -----------|-----------|-----------|
B|-----------| -----------|-----------|-----------|
G|-4-4-4-4-4-| -4-4-4-4-4-|-8-8-8-8-8-|-8-8-8-8-8-|
D|-x-x-x-x-x-| -x-x-x-x-x-|-x-x-x-x-x-|-x-x-x-x-x-|
A|-2-2-2-2-2-| -2-2-2-2-2-|-6-6-6-6-6-|-6-6-6-6-6-|
E|-----------| -----------|-----------|-----------|

E|-------------| -----------|-------------|-----------|
B|-------------| -----------|-------------|-----------|
G|-8s9-9-9-9-9-| -6-6-6-6-6-|-8s9-9-9-9-9-|-6-6-6-6-6-|
D|-x-x-x-x-x-x-| -x-x-x-x-x-|-x-x-x-x-x-x-|-x-x-x-x-x-|
A|-6s7-7-7-7-7-| -4-4-4-4-4-|-6s7-7-7-7-7-|-4-4-4-4-4-|
E|-------------| -----------|-------------|-----------|

B5
White lies
          
bloodshot eyes
E5          F#5
Breath of alcohol
 E5               F#5
Stole it from the mall
B5
How's Chris marked
         
with lipstick
E5
Better call
      F#5
their fathers
 E5
Sleeping with
     F#5
your daughters

[Pré Refrão]

   G#5      F#5      E5       F#5
E|---------------------------------------|
B|--------------------------------------|
G|--------------------------------------|
D|-6-6-6-6--4-4-4-4--2-2-2-2--4-4-4-4---|
A|-6-6-6-6--4-4-4-4--2-2-2-2--4-4-4-4---|
E|-4-4-4-4--2-2-2-2--0-0-0-0--2-2-2-2---|

G#5               F#5
  But good things come
             E5
to those who wait
          F#5
Cause she laid me
G#5            F#5
  And mom and dad
            E5
possess the key
         F#5
Instant slavery
G#5           F#5
  No need explain the plan
   E5           F#5
No need to even bother
G#5            F#5
  I'll pack my bags
             E5
I swear I'll run
        F#5
Wish my friends
were twenty-one

[Refrão]

B5           E5
  You dont belong you
         B5            F#5
left the kids to carry on
                  B5
You planned their fall
              E5
Too bad youre wrong dont need
   B5                  F#5
no mom dad slave drive song

      B5          E5
I time bomb I time bomb
       G#5         F#5
I time bomb I time bomb
       B5   
I time bomb

[Ponte] B5  E5  F#5  E5
        B5  E5  F#5  E5

E|-----------------------------------------------------------|
B|-----------------------------------------------------------|
G|-----------------------------------------------------------|
D|1-----4---------1---------------1---------------1----------|
A|---2---------------2------------------4---------------2----|
E|----------------------0------------2---------------0-------|

[Verso 03]

E|----------------------------------------------------------------|
B|----------------------------------------------------------------|
G|----------------------------------------------------------------|
D|----1-------1-------4-------4-------1-------1-------4-------4---|
|2-2-----2-2-----2-2-----2-2-----2-2-----2-2-----2-2-----2-2-----|
E|----------------------------------------------------------------|

E|----------------------------------------------------------------|
B|----------------------------------------------------------------|
G|----------------------------------------------------------------|
D|----------------------------------------------------------------|
A|----2-------2-------4-------4-------2-------2-------4-------4---|
|0-0-----0-0-----2-2-----2-2-----0-0-----0-0-----2-2-----2-2-----|


B5
Turn low the radio
  E5              F#5
I think I hear my dad
E5             F#5
Yelling at the band

[Pré Refrão]

   G#5      F#5      E5       F#5
E|---------------------------------------|
B|--------------------------------------|
G|--------------------------------------|
D|-6-6-6-6--4-4-4-4--2-2-2-2--4-4-4-4---|
A|-6-6-6-6--4-4-4-4--2-2-2-2--4-4-4-4---|
E|-4-4-4-4--2-2-2-2--0-0-0-0--2-2-2-2---|

G#5               F#5
  But good things come
             E5
to those who wait
          F#5
Cause she laid me
G#5            F#5
  And mom and dad
            E5
possess the key
         F#5
Instant slavery
G#5           F#5
  No need explain the plan
   E5           F#5
No need to even bother
G#5            F#5
  I'll pack my bags
             E5
I swear I'll run
        F#5
Wish my friends
were twenty-one

[Refrão]

B5           E5
  You dont belong you
         B5            F#5
left the kids to carry on
                  B5
You planned their fall
              E5
Too bad youre wrong dont need
   B5                   F#5
no mom dad slave drive song

       B5          E5
I time bomb I time bomb
       G#5         F#5
I time bomb I time bomb
       B5          E5
I time bomb I time bomb
       G#5         F#5
I time bomb I time bomb
       B5
I time bomb

Clipes