busca

Anthem

blink-182

Tom: C
Intro:

|----------------------------------------------------------------|
|----------------444444--444444--555555----------555555----------|
|444444--444444--444444--444444--444444----------444444----------|
|444444--444444--444444--444444--444444--444444--444444--444444--|
|222222--222222--222222--222222--222222--444444--222222--444444--|
|----------------------------------------222222----------222222--|

Verse:

|----------------------------------------------------------------|
|----------------444444--444444--555555----------555555----------|
|444444--444444--444444--444444--444444----------444444----------| (X2)
|444444--444444--444444--444444--444444--444444--444444--444444--|
|222222--222222--222222--222222--222222--444444--222222--444444--|
|----------------------------------------222222----------222222--|

Pre-Chorus:

|----------------------------------------------------------------|
|----------------------------------------------------------------|
|----------------------------------------------------------------|(X2)
|6666666-4444444-2222222-4444444-6666666-4444444-2222222-4444444-|
|6666666-4444444-2222222-4444444-6666666-4444444-2222222-4444444-|
|4444444-2222222-0000000-2222222-4444444-2222222-0000000-2222222-|

Fill:

|--------------------------------|
|--------------------------------|
|444444--444444--444444----------|
|444444--444444--444444--2-------|
|222222--222222--222222--2-------|
|------------------------0-------|

Verse:

|----------------------------------------------------------------|
|----------------------------------------------------------------|
|4444444-4444444-4444444-4444444---------------------------------|(X2)
|2222222-2222222-2222222-2222222-2222222-4444444-2222222-4444444-|
|2222222-2222222-2222222-2222222-2222222-4444444-2222222-4444444-|
|--------------------------------0000000-2222222-0000000-2222222-|

Pre-Chorus:

|----------------------------------------------------------------|
|----------------------------------------------------------------|
|----------------------------------------------------------------|(X2)
|6666666-4444444-2222222-4444444-6666666-4444444-2222222-4444444-|
|6666666-4444444-2222222-4444444-6666666-4444444-2222222-4444444-|
|4444444-2222222-0000000-2222222-4444444-2222222-0000000-2222222-|

Chorus:

|----------------------------------------------------------------|
|----------------------------------------------------------------|
|444444444444444-------------------------------------------------|(X3)
|444444444444444-222222222222222-666666666666666-444444444444444-|
|222222222222222-222222222222222-666666666666666-444444444444444-|
|----------------000000000000000-444444444444444-222222222222222-|

Solo:

|----------------------------------------------------------------|
|----------------------------------------------------------------|
|----------------------------------------------------------------|(X2)
|1-----4---------1---------------1---------------1---------------|
|---2---------------2------------------4---------------2---------|
|----------------------0------------2---------------0------------|

Solo Part 2:
(palm muted)
|----------------------------------------------------------------|
|----------------------------------------------------------------|
|----------------------------------------------------------------|
|----1-------1-------4-------4-------1-------1-------4-------4---|
|2-2-----2-2-----2-2-----2-2-----2-2-----2-2-----2-2-----2-2-----|
|----------------------------------------------------------------|

Solo Part 2 (cont.):
(still palm muted)

|----------------------------------------------------------------|
|----------------------------------------------------------------|
|----------------------------------------------------------------|
|----------------------------------------------------------------|
|----2-------2-------4-------4-------2-------2-------4-------4---|
|0-0-----0-0-----2-2-----2-2-----0-0-----0-0-----2-2-----2-2-----|
(repeat all of solo 2)

Pre-Chorus:

|----------------------------------------------------------------|
|----------------------------------------------------------------|
|----------------------------------------------------------------|(X2)
|6666666-4444444-2222222-4444444-6666666-4444444-2222222-4444444-|
|6666666-4444444-2222222-4444444-6666666-4444444-2222222-4444444-|
|4444444-2222222-0000000-2222222-4444444-2222222-0000000-2222222-|

Chorus:

|----------------------------------------------------------------|
|----------------------------------------------------------------|
|444444444444444-------------------------------------------------|(X4)
|444444444444444-222222222222222-666666666666666-444444444444444-|
|222222222222222-222222222222222-666666666666666-444444444444444-|
|----------------000000000000000-444444444444444-222222222222222-|

End on:

|----|
|----|
|4---|
|4---|
|2---|
|----|

Ouça a música para saber o ritmo do fim do pre-chorus e do chorus.

(intro)

(verse)

(pre-chorus)
(fill)

(verse)
(pre-shorus)
(chorus)
(solo)
(solo 2)

(pre-chorus)

(chorus)

Clipes