busca

Always

Blink-182

Tom: B
[Intro] B5  F#5  G#5  E5
        B5  F#5  G#5  E5

[Primeira Parte]

B5                F#5    G#5    
I've been here before a few times
          B5    F#5         G#5  
And I'm quite aware we're dying
          B5          F#5       G#5     
And your hands they shake with goodbyes
          B5       F#5           G#5    F#5 
And I'll take you back if you'd have me

[Pré-Refrão]

E|----------------------------------------------------|
B|-------4---4---------4---4-------4---4--------------|
G|-----4---4---------4---4-------4---4--------4-----4-|
D|----------------------------------------------------|
A|-2-2----------4-4-----------------------------------|
E|----------------------------4-4---------0-0---0-0---|

 B5       C#5      G#5  E5
So here I am I'm trying
 B5       C#5          G#5  E5
So here I am are you ready

[Refrão]

                B5       F#5       G#5
Come on let me hold you touch you feel you
E5
Always
 B5       C#5       G#5
Kiss you taste you all night
E5
Always

( B5  F#5  G#5  E5 )
( B5  F#5  G#5  E5 )

[Segunda Parte]
 
B5                  F#5         G#5    
And I'll miss your laugh your smile
        B5       F#5           G#5            
I'll admit I'm wrong if you'd tell me
        B5      F#5      G#5      
I'm so sick of fights I hate them
             B5   F#5       G#5    
Lets start this again for real

[Pré-Refrão]

 B5       C#5      G#5  E5
So here I am I'm trying
 B5       C#5          G#5  E5
So here I am are you ready

 B5       C#5      G#5  E5
So here I am I'm trying
 B5       C#5          G#5  E5
So here I am are you ready

[Refrão]

                B5       F#5       G#5
Come on let me hold you touch you feel you
E5
Always
 B5       C#5       G#5
Kiss you taste you all night
E5
Always

                B5       F#5       G#5
Come on let me hold you touch you feel you
E5
Always
 B5       C#5       G#5
Kiss you taste you all night
E5
Always

( B5  F#5  G#5  E5 )
( B5  F#5  G#5  E5 )
( B5  F#5  G#5  E5 )
( B5  F#5  G#5  E5 )

E|----------------------------------------------------|
B|----------------------------------------------------|
G|----------------------------------------------------|
D|----------------------------------------------------|
A|-2h4/6---4--2~-----------------2h4/6---4--2~--------|
E|----------------------------------------------------|

I've been here before a few times

And I'm quite aware we're dying

[Refrão]

                B5       F#5       G#5
Come on let me hold you touch you feel you
E5
Always
 B5       C#5       G#5
Kiss you taste you all night
E5
Always

                B5       F#5       G#5
Come on let me hold you touch you feel you
E5
Always
 B5       C#5       G#5
Kiss you taste you all night
E5
Always

[Final] B5  F#5  G#5  E5
        B5  F#5  G#5  E5

E|----------------------------------------------------|
B|-4---4---4---4-5------------------------------------|
G|---4---4---4----------------------------------------| (4x)
D|----------------------------------------------------|
A|----------------------------------------------------|
E|----------------------------------------------------|

Clipes

Cifra Club Pro

Aproveite o Cifra Club com benefícios exclusivos e sem anúncios
7 dias grátis
Cifra Club Pro
Aproveite o Cifra Club com benefícios exclusivos e sem anúncios
7 dias grátis