busca

Apple Shampoo

Blink-182

Intro 1 
G------------------------------------------------------------------------
D------------------------------------------------------------------------
A-3-3-3-3-3-3-3-3-3-3-3-3-3-3-3-3-8-8-8-8-8-8-8-8-10-10-10-10-10-10-10-10
E----------------------------------------------------------------------2x

Intro 2
G------------------------------------------------------------------------
D------------------------------------------------------------------------
A-0-0-0-0-0-0-0-0-5-5-5-5-5-5-5-5-0-0-0-0-0-0-0-0-5-5-5-5-8-8-8-8--------
E----------------------------------------------------------------------2x

Main Riff/verse 
G------------------------------------------------------------------------
D------------------------------------------------------------------------
A-3-3-3-3-3-3-3-3-8-8-8-8-8-8-8-8-10-10-10-10-10-10-10-10-8-8-8-8-8-8-8-8
E----------------------------------------------------------------------2x

Chorus (I never wanted to hold you back)
G------------------------------------------------------------------------
D------------------------------------------------------------------------
A-0-0-0-0-0-0-0-0-8-8-8-8-8-8-8-8-0-0-0-0-0-0-0-0-5-5-5-5-8-8-8-8--------
E----------------------------------------------------------------------2x

Post Chorus (I know just where I stand)
G------------------------------------------------------------------------
D------------------------------------------------------------------------
A-3-3-3-3-3-3-3-3--------------------------------------------------------
E-----------------3-3-3-3-3-3-3-3-1-1-1-1-1-1-1-1-1-1-1-1-1-1-1-1------2x

Interlude (where are you coming from?)
G------------------------------------------------------------------------
D------------------------------------------------------------------------
A-----------------5-5-5-5-5-5-5-5----------------------------------------
E-3-3-3-3-3-3-3-3-----------------1-1-1-1-1-1-1-1-3-3-3-3-3-3-3-3------1x

G------------------------------------------------------------------------
D------------------------------------------------------------------------
A-5-5-5-5-5-5-5-5---------------------------------0-0-0-0-0-0-2-3--------
E-----------------1-1-1-1-1-1-1-1-3-3-3-3-3-3-3-3----------------------1x

Ending
G------------------------------------------------------------------------
D------------------------------------------------------------------------
A-3-let ring------8-let ring-------10-let ring----8-let ring-------------
E----------------------------------------------------------------------2x

Clipes

Cifra Club Pro

Aproveite o Cifra Club com benefícios exclusivos e sem anúncios
7 dias grátis
Cifra Club Pro
Aproveite o Cifra Club com benefícios exclusivos e sem anúncios
7 dias grátis