busca

Brohemian Rhapsody

blink-182

Introdução:

G|---------------------------------------------------------------------------|
D|---------------------------------------------------------------------------|
A|----3-3-3-3-3-3-3-3-3-3-3-3-3-0----------------0-0-0-0-0-0-0-0-0-----------|
E|--------------------------------3--1------1--3-------------------3-3-3-3-3-|

G|-----------------------------------------------------------------------------|
D|-----------------------------------------------------------------------------|
A|----3-3-3-3-3-3-3-3-3-3-3-3-3-3-3-3-3-3-10-10-10-10-10-10-10-10-10-10-10h1210|
E|-----------------------------------------------------------------------------|

G|---------------------------------------------------------------------------|
D|---------------------------------------------------------------------------|
A|-----7-7-7-7-7-7-7-7-7-7-7-7-5-7-8-8-8-8-8-8-8-8-8-8-8-8-8-8-8-8-8-8-8-8-8-|
E|---------------------------------------------------------------------------|

"There's something 'bout you..."

G|---------------------------------------------------------------------------|
D|---------------------------------------------------------------------------|
A|----0-----------0-0--------------------------------------------------------|
E|------3--1----------3------------------------------------------------------|

Clipes