busca

Don't

blink-182

Tom: D
Intro:

          riff 01 (0'04)
E|----------------------------------------|
B|----------------------------------------|
G|-12-12-12-12----7-7--7-7-7-7------------|
D|----------------------------------------| 4X
A|-10-10-10-10----5-5--5-5-5-5------------|
E|----------------------------------------|

          riff 02 (0'11)
E|----------------------------------------|
B|-----8------8-----8-----8p7-------------|
G|-7-7----7-7---7-7---7-7-----------------|
D|----------------------------------------| 4X
A|----------------------------------------|
E|----------------------------------------|

          riff 03 (0'20)
E|----------------------------------------|-------------------------------------------|
B|----------------------------------------|-------------------------------------------|
G|-12-12-12-12----7-7--7-7-7-7------------|-12-12-12-12----7-7--7-7-7-7---------------|
D|----------------------------------------|--------------------------------7s9s7------|
A|-10-10-10-10----5-5--5-5-5-5------------|-10-10-10-10----5-5--5-5-5-5---------------|
E|----------------------------------------|--------------------------------5s7s5------|

E|----------------------------------------|-------------------------------------------|
B|----------------------------------------|-------------------------------------------|
G|-12-12-12-12----7-7--7-7-7-7------------|-12-12-12-12----7-7--7-7-7-7---------------|
D|--------------------------------7s9s7---|--------------------------------7s9s7------|
A|-10-10-10-10----5-5--5-5-5-5------------|-10-10-10-10----5-5--5-5-5-5---------------|
E|--------------------------------5s7s5---|--------------------------------5s7s5------|



Verso 1: (0'27)

G5           A5        G/B
 There was a time long ago

       C5                 G5
But it seemed like yesterday

           A5        G/B C5
When all I wanted was you

G5           A5
 And now you make a segway

G/B              C5
As you turn your face away

G5              A5           G/B C5
And I know your words aren't true



Refrão: (0'44)


A5          F#m        D5
 And I don't want your lies

A5          F#m            D5
And I don't think that I'm better than you inside

A5          F#m              D5
And you can take off your disguise

A5          F#m                   D5
Cause I can see the truth that's hidden behind your eyes


       Riff 04 (1'00)
E|-------------------------------------------|
B|----2---2---2---2---2----3---3---3--3---3--|
G|--2---2---2---2---2----2---2---2---2--2----|
D|-------------------------------------------|  2X
A|-------------------------------------------|
E|-------------------------------------------|


          riff 01 (1'08)
E|----------------------------------------|
B|----------------------------------------|
G|-12-12-12-12----7-7--7-7-7-7------------|
D|----------------------------------------| 4X
A|-10-10-10-10----5-5--5-5-5-5------------|
E|----------------------------------------|

          riff 02 (1'16)
E|----------------------------------------|
B|-----8------8-----8-----8p7-------------|
G|-7-7----7-7---7-7---7-7-----------------|
D|----------------------------------------| 4X
A|----------------------------------------|
E|----------------------------------------|

          riff 03 (1'24)
E|----------------------------------------|-------------------------------------------|
B|----------------------------------------|-------------------------------------------|
G|-12-12-12-12----7-7--7-7-7-7------------|-12-12-12-12----7-7--7-7-7-7---------------|
D|----------------------------------------|--------------------------------7s9s7------|
A|-10-10-10-10----5-5--5-5-5-5------------|-10-10-10-10----5-5--5-5-5-5---------------|
E|----------------------------------------|--------------------------------5s7s5------|

E|----------------------------------------|-------------------------------------------|
B|----------------------------------------|-------------------------------------------|
G|-12-12-12-12----7-7--7-7-7-7------------|-12-12-12-12----7-7--7-7-7-7---------------|
D|--------------------------------7s9s7---|--------------------------------7s9s7------|
A|-10-10-10-10----5-5--5-5-5-5------------|-10-10-10-10----5-5--5-5-5-5---------------|
E|--------------------------------5s7s5---|--------------------------------5s7s5------|



Verso 2: (1'33)

G5               A5                  G/B            C5
  And all those words that you don't say just mean less and lesseach day

G5          A5          G/B  C5
You can't make me shed a tear

G5        A5
 I think about tomorrow

G/B       C5
 Another day of sorrow

G5           A5               G/B  C5
But I don't think that I'll be here


Refrão: (1'49)


A5          F#m        D5
 And I don't want your lies

A5          F#m            D5
And I don't think that I'm better than you inside

A5          F#m              D5
And you can take off your disguise

A5           F#m                   D5
Cause I can see the truth that's hidden behind your eyes


       Riff 04 (2'05)
E|-------------------------------------------|
B|----2---2---2---2---2----3---3---3--3---3--|
G|--2---2---2---2---2----2---2---2---2--2----|
D|-------------------------------------------|  2X
A|-------------------------------------------|
E|-------------------------------------------|


          riff 02 (2'13)
E|----------------------------------------|
B|-----8------8-----8-----8p7-------------|
G|-7-7----7-7---7-7---7-7-----------------|
D|----------------------------------------| 4X
A|----------------------------------------|
E|----------------------------------------|

final: G5

Clipes