busca

Even If She Falls

Blink-182

Tom: D
Intro: F#5  G5  D5  D5/C# 
E|------------------------------------------------------------|
B|------------------------------------------------------------|
G|------------------------------------------------------------|
D|4-4-4-------------------------4-4-4-------------------------|
A|------5-5-5-------------------------5-5-5-7-7-7-5-5-5-7-7-5-|
E|------------5-5-5-5-5-5-5-5-5-------------------------------|


Verso 1:
             D
And their she was, like a starry night
              G
Like a Ferris wheel, full of blue green eyes
               Bm              A
And a heart of steel, always on her own

Almost never real
E|-----------------------------------------------------------------|
B|-----------------------------------------------------------------|
G|-11-11-11----11-11/12\9-9-----9-9/11\7-7------11-11/12--11--9----|
D|-x--x--x-----x--x-/x-\x-x-----x-x/x-\x-x------x--x-/x---x---x----|
A|-9--9--9-----9--9-/10\7-7-----7-7/9-\5-5------9--9-/10--9---7----|
E|-----------------------------------------------------------------|


Refrão:
D        A
  When the night will be begin
    Bm                   G                D
The pain it won't end even if she falls in love
         A                       Bm
Fact You wanna to turn back your heart will attack
     G
Even if she falls in love
E|-2------0-----2-----3--------------------------------------------|
B|---3------3-----3-----3------------------------------------------|
G|-----2------2-----2-----2----------------------------------------|
D|-----------------------------------------------------------------|
A|-----------------------------------------------------------------|
E|-----------------------------------------------------------------|


Intro: F#5  G5  D5  D5/C#
E|------------------------------------------------------------|
B|------------------------------------------------------------|
G|------------------------------------------------------------|
D|4-4-4-------------------------4-4-4-------------------------|
A|------5-5-5-------------------------5-5-5-7-7-7-5-5-5-7-7-5-|
E|------------5-5-5-5-5-5-5-5-5-------------------------------|


Verso 2:
             D
And their she was, like a blade of ice
              G
Like a Lonely road, clear day of life
                 Bm                  A
Always sharp and cold,  always beautiful
               D
I am such a fool
E|-----------------------------------------------------------------|
B|-----------------------------------------------------------------|
G|-11-11-11----11-11/12\9-9-----9-9/11\7-7------11-11/12--11--9----|
D|-x--x--x-----x--x-/x-\x-x-----x-x/x-\x-x------x--x-/x---x---x----|
A|-9--9--9-----9--9-/10\7-7-----7-7/9-\5-5------9--9-/10--9---7----|
E|-----------------------------------------------------------------|


Refrão:
D        A
  When the night will be begin
    Bm                   G                D
The pain it won't end even if she falls in love
         A                       Bm
Fact You wanna to turn back your heart will attack
     G
Even if she falls in love
E|-2------0-----2-----3--------------------------------------------|
B|---3------3-----3-----3------------------------------------------|
G|-----2------2-----2-----2----------------------------------------|
D|-----------------------------------------------------------------|
A|-----------------------------------------------------------------|
E|-----------------------------------------------------------------|


D       A
 Try to look in her eyes,
    Bm
the light is just right
   G
Even if she falls in love
D      A
And it isn't so bad,
     Bm              G                     D
It's driving you mad even if she falls in love

Clipes