Even If She Falls

Blink-182

A
123
X02220
Bm
234
X24432
D
123
XX0232
D5
134
X577XX
D5/C#
134
X477XX
F#5
134
244XXX
G
123
320003
G5
134
355XXX
Tom: G
#1t1#Intro: F#5  G5  D5  D5/C# 
#1t2#E|------------------------------------------------------------|
B|------------------------------------------------------------|
G|------------------------------------------------------------|
D|4-4-4-------------------------4-4-4-------------------------|
A|------5-5-5-------------------------5-5-5-7-7-7-5-5-5-7-7-5-|
E|------------5-5-5-5-5-5-5-5-5-------------------------------|#/1t2##/1t1#


Verso 1:
             D
And their she was, like a starry night
              G
Like a Ferris wheel, full of blue green eyes
               Bm              A
And a heart of steel, always on her own

#2t1#Almost never real
#2t2#E|-----------------------------------------------------------------|
B|-----------------------------------------------------------------|
G|-11-11-11----11-11/12\9-9-----9-9/11\7-7------11-11/12--11--9----|
D|-x--x--x-----x--x-/x-\x-x-----x-x/x-\x-x------x--x-/x---x---x----|
A|-9--9--9-----9--9-/10\7-7-----7-7/9-\5-5------9--9-/10--9---7----|
E|-----------------------------------------------------------------|#/2t2##/2t1#


Refrão:
D        A
  When the night will be begin
    Bm                   G                D
The pain it won't end even if she falls in love
         A                       Bm
Fact You wanna to turn back your heart will attack
     G
Even if she falls in love
#3t1##3t2#E|-2------0-----2-----3--------------------------------------------|
B|---3------3-----3-----3------------------------------------------|
G|-----2------2-----2-----2----------------------------------------|
D|-----------------------------------------------------------------|
A|-----------------------------------------------------------------|
E|-----------------------------------------------------------------|#/3t2##/3t1#


#4t1#Intro: F#5  G5  D5  D5/C#
#4t2#E|------------------------------------------------------------|
B|------------------------------------------------------------|
G|------------------------------------------------------------|
D|4-4-4-------------------------4-4-4-------------------------|
A|------5-5-5-------------------------5-5-5-7-7-7-5-5-5-7-7-5-|
E|------------5-5-5-5-5-5-5-5-5-------------------------------|#/4t2##/4t1#


Verso 2:
             D
And their she was, like a blade of ice
              G
Like a Lonely road, clear day of life
                 Bm                  A
Always sharp and cold,  always beautiful
               D
I am such a fool
#5t1##5t2#E|-----------------------------------------------------------------|
B|-----------------------------------------------------------------|
G|-11-11-11----11-11/12\9-9-----9-9/11\7-7------11-11/12--11--9----|
D|-x--x--x-----x--x-/x-\x-x-----x-x/x-\x-x------x--x-/x---x---x----|
A|-9--9--9-----9--9-/10\7-7-----7-7/9-\5-5------9--9-/10--9---7----|
E|-----------------------------------------------------------------|#/5t2##/5t1#


Refrão:
D        A
  When the night will be begin
    Bm                   G                D
The pain it won't end even if she falls in love
         A                       Bm
Fact You wanna to turn back your heart will attack
     G
Even if she falls in love
#6t1##6t2#E|-2------0-----2-----3--------------------------------------------|
B|---3------3-----3-----3------------------------------------------|
G|-----2------2-----2-----2----------------------------------------|
D|-----------------------------------------------------------------|
A|-----------------------------------------------------------------|
E|-----------------------------------------------------------------|#/6t2##/6t1#


D       A
 Try to look in her eyes,
    Bm
the light is just right
   G
Even if she falls in love
D      A
And it isn't so bad,
     Bm              G                     D
It's driving you mad even if she falls in love
Composição: Colaboração e revisão: Alberto Souza