Fuck, Fuck

Blink-182

A
123
X02220
B
234
X24442
C#
234
X46664
Tom: G
#1t1#Intro1
#1t2#e|--------------------|           | 
b|--------------------|           |
g|--------------------|   2X      |
d|--------6-----6-----|           |
a|----7-----7-----7---|           | 
e|--5---5-----5-------|           | 
                                 |#/1t2##/1t1#
#2t1##2t2#e|--------------------|           |
b|--------------------|           |
g|--------------------|   2X      |
d|--------6-----6-----|           |
a|----7-----7-----7---|           |
e|--7---7-----7-------|           |----------2X 
                                 |#/2t2##/2t1#
#3t1##3t2#e|--------------------|           |
b|--------------------|           |
g|--------------------|   2X      |
d|--------6-----6-----|           |
a|----7-----7-----7---|           |  
e|--9---9-----9-------|           |
                                 |#/3t2##/3t1#
#4t1##4t2#e|--------------------|           |
b|--------------------|           |
g|--------------------|   2X      |
d|--------6-----6-----|           | 
a|----9-----9-----9---|           | 
e|--7---7-----7-------|           |#/4t2##/4t1#

#5t1#Intro2
#5t2#e|-------------------------------------------------------|
b|-------------------------------------------------------|
g|-------------------------------------------------------|   2X
d|-------------------------------------------------------|
a|---777-7-77-7-7-777-7-77-7-7-777-7-77-7-7-999-9-99-9-9-|
e|---555-5-55-5-5-777-7-77-7-7-999-9-99-9-9-777-7-77-7-7-|#/5t2##/5t1#


Verse = Intro1, Com distorção



Refrão: A, C#, B


Solo: A, B, C#, A


#6t1##6t2#e|-----------------------------------------------------------|
b|-----------------------------------------------------------|
g|-----------------------------------------------------------|
d|--------6-7--------9-7-----------7--------6~7~6------------|
a|-----7----------7----------9-11--------9--------7----------|
e|--5----------7----------9-----------7----------------------|#/6t2##/6t1#


#7t1##7t2#e|-----------------------------------------------------------|
b|-----------------------------------------------------------|
g|-----------------------------------------------------------|
d|--------6-7--------9-7-----------7--------6~7~6------------|
a|-----7----------7----------9-11--------9--------7--5-------|
e|--5----------7----------9-----------7----------------------|#/7t2##/7t1#
Composição: Artie Kornfeld / Barker / Brian Wilson / Feldman / Feldmann / Hodges / Hoppus / Iil Aaron / J. P. Clark / Jan Berry / John Feldmann / John Lennon / Johnson / JP Clark / JRM / Mark Hoppus / Matt Malpass / Matt Skiba / Matt Skibba / Mott The Hopple / NOFX / Ono Yoko / Roger Christian / Sam Hollander / Skiba / Smrdeath / Stump / T. Hales / Thabiso Nkhereanye / The Cure / Tim Pagnotta / Tom / Tom DeLonge / Travis BarkerColaboração e revisão: