busca

Heart's All Gone

blink-182

Tom: G
Intro:
E|----------------------------------------------------------------|
B|----------------------------------------------------------------|
G|-2~~~~~~~~~~----------------------------------------------------|
D|-2~~~~~~~~~~----------------------------------------------------|
A|-0~~~~~~~~~~----------------------------------------------------|
E|----------------------------------------------------------------|

E|----------------------------------------------------------------|
B|----------------------------------------------------------------|
G|----------------------------------------------------------------|   (2x)
D|2-2-2----2-2-2-2------------------------------------------------|
A|0-0-0----0-0-0-0-3-3-3-3----3-3-3-3-----------------------------|
E|-----------------1-1-1-1----1-1-1-1-----------------------------|

1ª parte:
E|----------------------------------------------------------------|
B|----------------------------------------------------------------|
G|----------------------------------------------------------------|   (4x)
D|-222222222222222222222222---------------------------------------|
A|-0000000000000000000000003333333333333333333333333--------------|
E|-------------------------1111111111111111111111111--------------|

Refrão:
E|----------------------------------------------------------------|
B|----------------------------------------------------------------|
G|----------------------------------------------------------------|   (2x)
D|-55555555555555557777777777777777-------------------------------|
A|-333333333333333355555555555555553-3-3-3-3-3-3-3-3-3------------|
E|---------------------------------1-1-1-1-0-1-1-1-1-0------------|

Intro:
E|----------------------------------------------------------------|
B|----------------------------------------------------------------|
G|----------------------------------------------------------------|   (2x)
D|2-2-2----2-2-2-2------------------------------------------------|
A|0-0-0----0-0-0-0-3-3-3-3----3-3-3-3-----------------------------|
E|-----------------1-1-1-1----1-1-1-1-----------------------------|

2ª Parte:
E|----------------------------------------------------------------|
B|----------------------------------------------------------------|
G|----------------------------------------------------------------|   (2x)
D|-222222222222222222222222---------------------------------------|
A|-0000000000000000000000003333333333333333333333333--------------|
E|-------------------------1111111111111111111111111--------------|

Refrão:
E|----------------------------------------------------------------|
B|----------------------------------------------------------------|
G|----------------------------------------------------------------|   (4x)
D|-55555555555555557777777777777777-------------------------------|
A|-333333333333333355555555555555553-3-3-3-3-3-3-3-3-3------------|
E|---------------------------------1-1-1-1-0-1-1-1-1-0------------|

Interlúdio:
E|----------------------------------------------------------------|
B|----------------------------------------------------------------|
G|-2~~~~~~~~~~----------------------------------------------------|   (2x)
D|-2~~~~~~~~~~-3~~~~~~~~~~----------------------------------------|
A|-0~~~~~~~~~~-3~~~~~~~~~~----------------------------------------|
E|-------------1~~~~~~~~~~----------------------------------------|

Riff:
E|----------------------------------------------------------------------------------------------------|
B|----------------------------------------------------------------------------------------------------|
G|----------------------------------------------------------------------------------------------------|
D|2-2-2-2-2-222-2-2-2-2-2-2-----------------------2-2-2-222-2-2-2-2-222-----------------------555555--|
A|0-0-0-0-0-000-0-0-0-0-0-0-3-3-3-333-3-3-3-3-333-0-0-0-000-0-0-0-0-000-3-3-3-333-3-3-3-3-333-333333--|
E|--------------------------1-1-1-111-1-1-1-1-111-----------------------1-1-1-111-1-1-1-1-111---------|

Refrão:
E|----------------------------------------------------------------|
B|----------------------------------------------------------------|
G|----------------------------------------------------------------|   (5x)
D|-55555555555555557777777777777777-------------------------------|
A|-333333333333333355555555555555553-3-3-3-3-3-3-3-3-3------------|
E|---------------------------------1-1-1-1-0-1-1-1-1-0------------| 

Final:
E|----------------------------------------------------------------|
B|----------------------------------------------------------------|
G|-2~~~~~~~~~~----------------------------------------------------|
D|-2~~~~~~~~~~----------------------------------------------------|
A|-0~~~~~~~~~~----------------------------------------------------|
E|----------------------------------------------------------------|

Clipes