Heart's All Gone

Blink-182

Tom: G
#1t1#Intro:
#1t2#E|----------------------------------------------------------------|
B|----------------------------------------------------------------|
G|-2~~~~~~~~~~----------------------------------------------------|
D|-2~~~~~~~~~~----------------------------------------------------|
A|-0~~~~~~~~~~----------------------------------------------------|
E|----------------------------------------------------------------|#/1t2##/1t1#

#2t1##2t2#E|----------------------------------------------------------------|
B|----------------------------------------------------------------|
G|----------------------------------------------------------------|   (2x)
D|2-2-2----2-2-2-2------------------------------------------------|
A|0-0-0----0-0-0-0-3-3-3-3----3-3-3-3-----------------------------|
E|-----------------1-1-1-1----1-1-1-1-----------------------------|#/2t2##/2t1#

#3t1#1ª parte:
#3t2#E|----------------------------------------------------------------|
B|----------------------------------------------------------------|
G|----------------------------------------------------------------|   (4x)
D|-222222222222222222222222---------------------------------------|
A|-0000000000000000000000003333333333333333333333333--------------|
E|-------------------------1111111111111111111111111--------------|#/3t2##/3t1#

#4t1#Refrão:
#4t2#E|----------------------------------------------------------------|
B|----------------------------------------------------------------|
G|----------------------------------------------------------------|   (2x)
D|-55555555555555557777777777777777-------------------------------|
A|-333333333333333355555555555555553-3-3-3-3-3-3-3-3-3------------|
E|---------------------------------1-1-1-1-0-1-1-1-1-0------------|#/4t2##/4t1#

#5t1#Intro:
#5t2#E|----------------------------------------------------------------|
B|----------------------------------------------------------------|
G|----------------------------------------------------------------|   (2x)
D|2-2-2----2-2-2-2------------------------------------------------|
A|0-0-0----0-0-0-0-3-3-3-3----3-3-3-3-----------------------------|
E|-----------------1-1-1-1----1-1-1-1-----------------------------|#/5t2##/5t1#

#6t1#2ª Parte:
#6t2#E|----------------------------------------------------------------|
B|----------------------------------------------------------------|
G|----------------------------------------------------------------|   (2x)
D|-222222222222222222222222---------------------------------------|
A|-0000000000000000000000003333333333333333333333333--------------|
E|-------------------------1111111111111111111111111--------------|#/6t2##/6t1#

#7t1#Refrão:
#7t2#E|----------------------------------------------------------------|
B|----------------------------------------------------------------|
G|----------------------------------------------------------------|   (4x)
D|-55555555555555557777777777777777-------------------------------|
A|-333333333333333355555555555555553-3-3-3-3-3-3-3-3-3------------|
E|---------------------------------1-1-1-1-0-1-1-1-1-0------------|#/7t2##/7t1#

#8t1#Interlúdio:
#8t2#E|----------------------------------------------------------------|
B|----------------------------------------------------------------|
G|-2~~~~~~~~~~----------------------------------------------------|   (2x)
D|-2~~~~~~~~~~-3~~~~~~~~~~----------------------------------------|
A|-0~~~~~~~~~~-3~~~~~~~~~~----------------------------------------|
E|-------------1~~~~~~~~~~----------------------------------------|#/8t2##/8t1#

#9t1#Riff:
#9t2#E|----------------------------------------------------------------------------------------------------|
B|----------------------------------------------------------------------------------------------------|
G|----------------------------------------------------------------------------------------------------|
D|2-2-2-2-2-222-2-2-2-2-2-2-----------------------2-2-2-222-2-2-2-2-222-----------------------555555--|
A|0-0-0-0-0-000-0-0-0-0-0-0-3-3-3-333-3-3-3-3-333-0-0-0-000-0-0-0-0-000-3-3-3-333-3-3-3-3-333-333333--|
E|--------------------------1-1-1-111-1-1-1-1-111-----------------------1-1-1-111-1-1-1-1-111---------|#/9t2##/9t1#

#10t1#Refrão:
#10t2#E|----------------------------------------------------------------|
B|----------------------------------------------------------------|
G|----------------------------------------------------------------|   (5x)
D|-55555555555555557777777777777777-------------------------------|
A|-333333333333333355555555555555553-3-3-3-3-3-3-3-3-3------------|
E|---------------------------------1-1-1-1-0-1-1-1-1-0------------| #/10t2##/10t1#

#11t1#Final:
#11t2#E|----------------------------------------------------------------|
B|----------------------------------------------------------------|
G|-2~~~~~~~~~~----------------------------------------------------|
D|-2~~~~~~~~~~----------------------------------------------------|
A|-0~~~~~~~~~~----------------------------------------------------|
E|----------------------------------------------------------------|#/11t2##/11t1#
Composição: blink-182Colaboração e revisão: Eduardo Pereira