busca

I Wanna Fuck a Dog In The Ass

blink-182

Tom: D
Introdução


e|--------------------------------------
B|--------------------------------------
G|-----4--------------------------------        (x2)
D|-------5---5---5-----7----------------
A|---5-----5---3---3/5------------------
E|--------------------------------------

     (0:06)
e|--------------------------------------
B|--------------------------------------
G|-----4--------------------------------        (X1)
D|-------5-5-5-5-5-5-5-5---7------------
A|---5-------------------5--------------
E|--------------------------------------

e|--------------------------------------
B|--------------------------------------
G|-----4--------------------------------        (x1)
D|-------5---5---5-----7----------------
A|---5-----5---3---3/5------------------
E|--------------------------------------

     (0:11)
e|--------------------------------------
B|--------------------------------------
G|-----4--------------------------------        (x11)
D|-------5---5---5-----7----------------
A|---5-----5---3---3/5------------------
E|--------------------------------------







     (0:41)
e|--------------------------------------
B|--------------------------------------
G|-----4--------------------------------        (x1)
D|-------5---5---5-----7----------------
A|---5-----5---3---3/5------------------
E|--------------------------------------

e|--------------------------------------
B|-----4--------------------------------
G|---5---5---5---5-----7----------------        (X1)
D|---------5---3---3/5------------------
A|--------------------------------------
E|--------------------------------------

e|--------------------------------------
B|--------------------------------------
G|-----4--------------------------------        (x2)
D|-------5---5---5-----7----------------
A|---5-----5---3---3/5------------------
E|--------------------------------------

e|--------------------------------------
B|--------------------------------------
G|-----4----------------------4---------        (x1)
D|-------5---5---5-----7------5---------
A|---5-----5---3---3/5--------5---------
E|--------------------------------------


     (1:00)
e|--------------------------------------
B|--------------------------------------
G|--------------------------------------        (X1)
D|-----5-----7--------------------------
A|---3---3/5----------------------------
E|--------------------------------------



     (1:02)
e|--------------------------------------
B|--------------------------------------
G|-----4--------------------------------        (x2)
D|-------5---5---5-----7----------------
A|---5-----5---3---3/5------------------
E|--------------------------------------


e|--------------------------------------
B|--------------------------------------
G|---4----------------------------------        (X1)
D|---5----------------------------------
A|---5----------------------------------
E|--------------------------------------

e|--------------------------------------
B|--------------------------------------
G|-----4--------------------------------        (x1)
D|-------5---5---5-----7---5------------
A|---5-----5---3---3/5------------------
E|--------------------------------------


e|--------------------------------------
B|-----4--------------------------------
G|---5---5---5---5----------------------        (X1)
D|---------5---3---3/5------------------
A|--------------------------------------
E|--------------------------------------

Clipes