busca

Just About Done

blink-182

Tom: F
Notas:Em F#5 Gm Bb5

e|--12-~~---|
B|----------|

riff
e|---------------------|
B|---------------------|
G|-----------3---------|
D|--2---4-5--3---------|
A|--2---4-5--1---------|
E|--0-0-2-3------------|

"COME ON"

Just about done with it but we'll let you know
HEY
just about done with it but we'll let you know
HEY
just about done with it but we'll let you know
HEY
just about done with it but we'll let you know
HEY
just about done with it but we'll let you know
HEY
just about done with it but we'll let you know
HEY
just about done with it but we'll let you know
HEY
just about done with it but we'll let you know
HEY
just about done with it but we'll let you know
HEY

Clipes