Kaleidoscope

Blink-182

Tom: G
Intro:

#1t1#(Guitarra 1)
#1t2#E|--------------------------------------------------------------------------|
B|--------------------------------------------------------------------------|
G|-----------77777777-------------------------------------------------------|
D|12-11-9--7-77777777--12-11-9--7-55555555----------------------------------|
A|9--9--12-7-55555555--9--9--12-7-55555555----------------------------------|
D|9--9--9--7-55555555--9--9--9--7-55555555----------------------------------|#/1t2##/1t1#

#2t1#(Guitarra 2) (0:10)
#2t2#E|--------------------------------------------------------------------------|
B|--------------------7-------------------------7---------------------------|
G|--7----------7-----------7------------7-----------------------------------|
D|-------0-----------------------0------------------------------------------|
A|--------------------------------------------------------------------------|
D|--------------------------------------------------------------------------|#/2t2##/2t1#

(0:20)

#3t1#(Guitarra 1)
#3t2#E|--------------------------------------------------------------------------|
B|-3---2---3---2------------------------------------------------------------|
G|-2---2---4---2------------------------------------------------------------|
D|-0---2---4---2------------------------------------------------------------|
A|-0---0---2---0------------------------------------------------------------|
D|-0------------------------------------------------------------------------|#/3t2##/3t1#

Verso - 0:31:

#4t1#(Guitarra 1)
#4t2#E|--------------------------------------------------------------------------|
B|--------------------------------------------------------------------------|
G|----------77777777--------------------------------------------------------|
D|12-11-9-7-77777777--12-11-9-7-55555555------------------------------------|
A|9--9--9-7-55555555--9--9--9-7-55555555------------------------------------|
D|9--9--9-7-55555555--9--9--9-7-55555555------------------------------------|#/4t2##/4t1#

#5t1#(Guitarra 2 - 0:38) 
#5t2#E|--------------------------------------------------------------------------|
B|-7---8--------------------------------------------------------------------|
G|-7---7--------------------------------------------------------------------|
D|-0---0--------------------------------------------------------------------|
A|--------------------------------------------------------------------------|
D|--------------------------------------------------------------------------|#/5t2##/5t1#

Pré-Refrão - 0:48:

#6t1#(Guitarra 1)
#6t2#E|--------------------------------------------------------------------------|
B|--------------------------------------------------------------------------|
G|--------------------------------------------------------------------------|
D|-5555555555555555---------------------------------------------------------|
A|-5555555555555555---------------------------------------------------------|
D|-5555555555555555---------------------------------------------------------|#/6t2##/6t1#

#7t1#(Guitarra 2)
#7t2#E|--------------------------------------------------------------------------|
B|--------------------------------------------------------------------------|
G|-9\7-777777---9\7-777777--------------------------------------------------|
D|-x-x-xxxxxx---x-x-xxxxxx--------------------------------------------------|
A|-7\5-555555---7\5-555555--------------------------------------------------|
D|--------------------------------------------------------------------------|#/7t2##/7t1#

Refrão - 0:50:

#8t1#(Guitarra 1)
#8t2#E|--------------------------------------------------------------------------|
B|--------------------------------------------------------------------------|
G|--------------------------------------------------------------------------|
D|-000000-77--000000-7-0-44444444-55555555----------------------------------|
A|-000000-77--000000-7-0-44444444-55555555----------------------------------|
D|-000000-77--000000-7-0-44444444-55555555----------------------------------|#/8t2##/8t1#

Verso - 1:06:

#9t1#(Guitarra 1)
#9t2#E|--------------------------------------------------------------------------|
B|--------------------------------------------------------------------------|
G|----------77777777--------------------------------------------------------|
D|12-11-9-7-77777777--12-11-9-7-55555555------------------------------------|
A|9--9--9-7-55555555--9--9--9-7-55555555------------------------------------|
D|9--9--9-7-55555555--9--9--9-7-55555555------------------------------------|#/9t2##/9t1#

#10t1#(Guitarra 2)
#10t2#E|--------------------------------------------------------------------------|
B|----------77777777--------------------------------------------------------|
G|--7-7-7-7-77777777--------------------------------------------------------|
D|-7-7-7-7--77777777--------------------------------------------------------|
A|--------------------------------------------------------------------------|
D|--------------------------------------------------------------------------|#/10t2##/10t1#

Pré-Refrão - 1:27:

#11t1#(Guitarra 1)
#11t2#E|--------------------------------------------------------------------------|
B|-3---2---3---2------------------------------------------------------------|
G|-2---2---4---2------------------------------------------------------------|
D|-0---2---4---2---5555555555555555-----------------------------------------|
A|-0---0---2---0---5555555555555555-----------------------------------------|
D|-0---------------5555555555555555-----------------------------------------|#/11t2##/11t1#

#12t1#(Guitarra 2)
#12t2#E|--------------------------------------------------------------------------|
B|--------------------------------------------------------------------------|
G|-----------------9\7-777777---9\7-777777----------------------------------|
D|-----------------x-x-xxxxxx---x-x-xxxxxx----------------------------------|
A|-----------------7\5-555555---7\5-555555----------------------------------|
D|--------------------------------------------------------------------------|#/12t2##/12t1#

Refrão - 1:40:

#13t1#(Guitarra 1)
#13t2#E|--------------------------------------------------------------------------|
B|--------------------------------------------------------------------------|
G|--------------------------------------------------------------------------|
D|-000000-77--000000-7-0-44444444-55555555----------------------------------|
A|-000000-77--000000-7-0-44444444-55555555----------------------------------|
D|-000000-77--000000-7-0-44444444-55555555----------------------------------|#/13t2##/13t1#

Interludio - 2:02:

#14t1##14t2#E|--------------------------------------------------------------------------|
B|-3-----3------------------------------------------------------------------|
G|-2--7--2------------------------------------------------------------------|
D|-0--7--0--2---------------------------------------------------------------|
A|-0--5--0--2---------------------------------------------------------------|
D|-0--5--0--2---------------------------------------------------------------|#/14t2##/14t1#

(2:23)

#15t1##15t2#E|--------------------------------------------------------------------------|
B|--------------------------------------------------------------------------|
G|--------------------------------------------------------------------------|
D|-0--------5--------0--------2---------------------------------------------|
A|-0-x 16---5-x 16---0-x 16---2-x 16----------------------------------------|
D|-0--------5--------0--------2---------------------------------------------|#/15t2##/15t1#

Refrão - 2:49:

#16t1#(Guitarra 1)
#16t2#E|--------------------------------------------------------------------------|
B|--------------------------------------------------------------------------|
G|--------------------------------------------------------------------------|
D|-000000-77--000000-7-0-44444444-55555555----------------------------------|
A|-000000-77--000000-7-0-44444444-55555555----------------------------------|
D|-000000-77--000000-7-0-44444444-55555555----------------------------------|#/16t2##/16t1#

#17t1#(Guitarra 20
#17t2#E|--------------------------------------------------------------------------|
B|-----------------------7-8-10--7-8-10----7--------------------------------|
G|--------------------------------------------------------------------------|
D|--------------------------------------------------------------------------|
A|--------------------------------------------------------------------------|
D|--------------------------------------------------------------------------|#/17t2##/17t1#

#18t1#(Guitarra 1)
#18t2#E|--------------------------------------------------------------------------|
B|--------------------------------------------------------------------------|
G|--------------------------------------------------------------------------|
D|-000000-77--000000-7-0-44444444-55555555----------------------------------|
A|-000000-77--000000-7-0-44444444-55555555----------------------------------|
D|-000000-77--000000-7-0-44444444-55555555----------------------------------|#/18t2##/18t1#

#19t1#(Guitarra 2)
#19t2#E|--------------------------------------------------------------------------|
B|-----------------------7-5-----7-5------7---------------------------------|
G|---------------------------7-------7--------------------------------------|
D|--------------------------------------------------------------------------|
A|--------------------------------------------------------------------------|
D|--------------------------------------------------------------------------|#/19t2##/19t1#
Composição: Colaboração e revisão: Alberto Souza