busca

Kaleidoscope

Blink-182

Tom: G
Intro:

(Guitarra 1)
E|--------------------------------------------------------------------------|
B|--------------------------------------------------------------------------|
G|-----------77777777-------------------------------------------------------|
D|12-11-9--7-77777777--12-11-9--7-55555555----------------------------------|
A|9--9--12-7-55555555--9--9--12-7-55555555----------------------------------|
D|9--9--9--7-55555555--9--9--9--7-55555555----------------------------------|

(Guitarra 2) (0:10)
E|--------------------------------------------------------------------------|
B|--------------------7-------------------------7---------------------------|
G|--7----------7-----------7------------7-----------------------------------|
D|-------0-----------------------0------------------------------------------|
A|--------------------------------------------------------------------------|
D|--------------------------------------------------------------------------|

(0:20)

(Guitarra 1)
E|--------------------------------------------------------------------------|
B|-3---2---3---2------------------------------------------------------------|
G|-2---2---4---2------------------------------------------------------------|
D|-0---2---4---2------------------------------------------------------------|
A|-0---0---2---0------------------------------------------------------------|
D|-0------------------------------------------------------------------------|

Verso - 0:31:

(Guitarra 1)
E|--------------------------------------------------------------------------|
B|--------------------------------------------------------------------------|
G|----------77777777--------------------------------------------------------|
D|12-11-9-7-77777777--12-11-9-7-55555555------------------------------------|
A|9--9--9-7-55555555--9--9--9-7-55555555------------------------------------|
D|9--9--9-7-55555555--9--9--9-7-55555555------------------------------------|

(Guitarra 2 - 0:38) 
E|--------------------------------------------------------------------------|
B|-7---8--------------------------------------------------------------------|
G|-7---7--------------------------------------------------------------------|
D|-0---0--------------------------------------------------------------------|
A|--------------------------------------------------------------------------|
D|--------------------------------------------------------------------------|

Pré-Refrão - 0:48:

(Guitarra 1)
E|--------------------------------------------------------------------------|
B|--------------------------------------------------------------------------|
G|--------------------------------------------------------------------------|
D|-5555555555555555---------------------------------------------------------|
A|-5555555555555555---------------------------------------------------------|
D|-5555555555555555---------------------------------------------------------|

(Guitarra 2)
E|--------------------------------------------------------------------------|
B|--------------------------------------------------------------------------|
G|-9\7-777777---9\7-777777--------------------------------------------------|
D|-x-x-xxxxxx---x-x-xxxxxx--------------------------------------------------|
A|-7\5-555555---7\5-555555--------------------------------------------------|
D|--------------------------------------------------------------------------|

Refrão - 0:50:

(Guitarra 1)
E|--------------------------------------------------------------------------|
B|--------------------------------------------------------------------------|
G|--------------------------------------------------------------------------|
D|-000000-77--000000-7-0-44444444-55555555----------------------------------|
A|-000000-77--000000-7-0-44444444-55555555----------------------------------|
D|-000000-77--000000-7-0-44444444-55555555----------------------------------|

Verso - 1:06:

(Guitarra 1)
E|--------------------------------------------------------------------------|
B|--------------------------------------------------------------------------|
G|----------77777777--------------------------------------------------------|
D|12-11-9-7-77777777--12-11-9-7-55555555------------------------------------|
A|9--9--9-7-55555555--9--9--9-7-55555555------------------------------------|
D|9--9--9-7-55555555--9--9--9-7-55555555------------------------------------|

(Guitarra 2)
E|--------------------------------------------------------------------------|
B|----------77777777--------------------------------------------------------|
G|--7-7-7-7-77777777--------------------------------------------------------|
D|-7-7-7-7--77777777--------------------------------------------------------|
A|--------------------------------------------------------------------------|
D|--------------------------------------------------------------------------|

Pré-Refrão - 1:27:

(Guitarra 1)
E|--------------------------------------------------------------------------|
B|-3---2---3---2------------------------------------------------------------|
G|-2---2---4---2------------------------------------------------------------|
D|-0---2---4---2---5555555555555555-----------------------------------------|
A|-0---0---2---0---5555555555555555-----------------------------------------|
D|-0---------------5555555555555555-----------------------------------------|

(Guitarra 2)
E|--------------------------------------------------------------------------|
B|--------------------------------------------------------------------------|
G|-----------------9\7-777777---9\7-777777----------------------------------|
D|-----------------x-x-xxxxxx---x-x-xxxxxx----------------------------------|
A|-----------------7\5-555555---7\5-555555----------------------------------|
D|--------------------------------------------------------------------------|

Refrão - 1:40:

(Guitarra 1)
E|--------------------------------------------------------------------------|
B|--------------------------------------------------------------------------|
G|--------------------------------------------------------------------------|
D|-000000-77--000000-7-0-44444444-55555555----------------------------------|
A|-000000-77--000000-7-0-44444444-55555555----------------------------------|
D|-000000-77--000000-7-0-44444444-55555555----------------------------------|

Interludio - 2:02:

E|--------------------------------------------------------------------------|
B|-3-----3------------------------------------------------------------------|
G|-2--7--2------------------------------------------------------------------|
D|-0--7--0--2---------------------------------------------------------------|
A|-0--5--0--2---------------------------------------------------------------|
D|-0--5--0--2---------------------------------------------------------------|

(2:23)

E|--------------------------------------------------------------------------|
B|--------------------------------------------------------------------------|
G|--------------------------------------------------------------------------|
D|-0--------5--------0--------2---------------------------------------------|
A|-0-x 16---5-x 16---0-x 16---2-x 16----------------------------------------|
D|-0--------5--------0--------2---------------------------------------------|

Refrão - 2:49:

(Guitarra 1)
E|--------------------------------------------------------------------------|
B|--------------------------------------------------------------------------|
G|--------------------------------------------------------------------------|
D|-000000-77--000000-7-0-44444444-55555555----------------------------------|
A|-000000-77--000000-7-0-44444444-55555555----------------------------------|
D|-000000-77--000000-7-0-44444444-55555555----------------------------------|

(Guitarra 20
E|--------------------------------------------------------------------------|
B|-----------------------7-8-10--7-8-10----7--------------------------------|
G|--------------------------------------------------------------------------|
D|--------------------------------------------------------------------------|
A|--------------------------------------------------------------------------|
D|--------------------------------------------------------------------------|

(Guitarra 1)
E|--------------------------------------------------------------------------|
B|--------------------------------------------------------------------------|
G|--------------------------------------------------------------------------|
D|-000000-77--000000-7-0-44444444-55555555----------------------------------|
A|-000000-77--000000-7-0-44444444-55555555----------------------------------|
D|-000000-77--000000-7-0-44444444-55555555----------------------------------|

(Guitarra 2)
E|--------------------------------------------------------------------------|
B|-----------------------7-5-----7-5------7---------------------------------|
G|---------------------------7-------7--------------------------------------|
D|--------------------------------------------------------------------------|
A|--------------------------------------------------------------------------|
D|--------------------------------------------------------------------------|

Clipes

Cifra Club Pro

Aproveite o Cifra Club com benefícios exclusivos e sem anúncios
7 dias grátis
Cifra Club Pro
Aproveite o Cifra Club com benefícios exclusivos e sem anúncios
7 dias grátis