Letters To Elise

Blink-182

Tom: G
#1t1#Introdução:
#1t2#e|---------------------------------------------------------------------------|
B|---------------------------------------------------------------------------|
G|---------------------------------------------------------------------------|
D|-11/14-14-14-14-11-11-9-9-9-11-11-7-7-7------------------------------------|x 3
A|---------------------------------------------------------------------------|
E|---------------------------------------------------------------------------|#/1t2##/1t1#

#2t1#4º tempo
#2t2#e|---------------------------------------------------------------------------|
B|---------------------------------------------------------------------------|
G|---------------------------------------------------------------------------|
D|-12-12-12-12-12-12-12-12---------------------------------------------------|
A|---------------------------------------------------------------------------|
E|---------------------------------------------------------------------------|#/2t2##/2t1#

#3t1#Verso:
#3t2#e|---------------------------------------------------------------------------|
B|---------------------------------------------------------------------------|
G|-----------------------------(9-9-9-9)-------------------------------------|
D|--11-11-11-11-9-9-9-9-7-7-7-7-7-7-7-7--------------------------------------|x 2
A|-----------------------------(0-0-0-0)-------------------------------------|
E|---------------------------------------------------------------------------|#/3t2##/3t1#

Introdução x 1
Verso x 4

#4t1#Refrão I:
#4t2#e|---------------------------------------------------------------------------|
B|---------------------------------------------------------------------------|
G|--99999999--6666-----------------------------------------------------------|
D|--99999999--xxxx-7777------------------------------------------------------|x 3
A|--77777777--4444-xxxx------------------------------------------------------|
E|-----------------5555------------------------------------------------------|#/4t2##/4t1#


#5t1#Refrão II:
#5t2#e|---------------------------------------------------------------------------|
B|---------------------------------------------------------------------------|
G|--------------------------------66666666-----------------------------------|
D|--55555555--44444444--55555555--xxxxxxxx-----------------------------------|
A|--xxxxxxxx--xxxxxxxx--xxxxxxxx--44444444-----------------------------------|
E|--33333333--22222222--33333333---------------------------------------------|#/5t2##/5t1#


#6t1##6t2#e|---------------------------------------------------------------------------|
B|---------------------------------------------------------------------------|
G|------------66666666------------6666---------------------------------------|
D|--55555555--xxxxxxxx--55555555--xxxx--9999---------------------------------|
A|--xxxxxxxx--44444444--55555555--4444--xxxx---------------------------------|
E|--33333333------------33333333--------7777---------------------------------|#/6t2##/6t1#

#7t1#Parada I:
#7t2#e|------------7--------------------------------------------------------------|
B|--10-----10----------------------------------------------------------------|
G|-----9--------9------------------------------------------------------------|
D|-------7---------7---------------------------------------------------------|x 2
A|-------0---------0---------------------------------------------------------|
E|---------------------------------------------------------------------------|#/7t2##/7t1#

#8t1#Parada II:
#8t2#e|---------------------------------------------------------------------------|
B|---------------------------------------------------------------------------|
G|----------------------99999999--6666--4444---------------------------------|
D|--77777777--99999999--xxxxxxxx--xxxx--xxxx---------------------------------|
A|--xxxxxxxx--xxxxxxxx--77777777--4444--2222---------------------------------|
E|--55555555--77777777-------------------------------------------------------|#/8t2##/8t1#

Introdução x 1

#9t1#Final:
#9t2#e|---------------------------------------------------------------------------|
B|---------------------------------------------------------------------------|
G|------------99999999--55555555--77777777-----------------------------------|
D|--77777777--99999999--77777777--77777777-----------------------------------|
A|--77777777--77777777--44444444--55555555-----------------------------------|
E|--55555555-----------------------------------------------------------------|#/9t2##/9t1#

#10t1##10t2#e|---------------------------------------------------------------------------|
B|---------------------------------------------------------------------------|
G|--------------------------------77777777-----------------------------------|
D|--77777777--55555555--44444444--77777777-----------------------------------|x 4
A|--77777777--77777777--44444444--55555555-----------------------------------|
E|--55555555--44444444--22222222---------------------------------------------|#/10t2##/10t1#
Composição: Artie Kornfeld / Barker / Brian Wilson / Feldman / Feldmann / Hodges / Hoppus / Iil Aaron / J. P. Clark / Jan Berry / John Feldmann / John Lennon / Johnson / JP Clark / JRM / Mark Hoppus / Matt Malpass / Matt Skiba / Matt Skibba / Mott The Hopple / NOFX / Ono Yoko / Roger Christian / Sam Hollander / Skiba / Smrdeath / Stump / T. Hales / Thabiso Nkhereanye / The Cure / Tim Pagnotta / Tom / Tom DeLonge / Travis BarkerColaboração e revisão: Evelyn Pimenta