busca

Letters To Elise

blink-182

Tom: G
Introdução:
e|---------------------------------------------------------------------------|
B|---------------------------------------------------------------------------|
G|---------------------------------------------------------------------------|
D|-11/14-14-14-14-11-11-9-9-9-11-11-7-7-7------------------------------------|x 3
A|---------------------------------------------------------------------------|
E|---------------------------------------------------------------------------|

4º tempo
e|---------------------------------------------------------------------------|
B|---------------------------------------------------------------------------|
G|---------------------------------------------------------------------------|
D|-12-12-12-12-12-12-12-12---------------------------------------------------|
A|---------------------------------------------------------------------------|
E|---------------------------------------------------------------------------|

Verso:
e|---------------------------------------------------------------------------|
B|---------------------------------------------------------------------------|
G|-----------------------------(9-9-9-9)-------------------------------------|
D|--11-11-11-11-9-9-9-9-7-7-7-7-7-7-7-7--------------------------------------|x 2
A|-----------------------------(0-0-0-0)-------------------------------------|
E|---------------------------------------------------------------------------|

Introdução x 1
Verso x 4

Refrão I:
e|---------------------------------------------------------------------------|
B|---------------------------------------------------------------------------|
G|--99999999--6666-----------------------------------------------------------|
D|--99999999--xxxx-7777------------------------------------------------------|x 3
A|--77777777--4444-xxxx------------------------------------------------------|
E|-----------------5555------------------------------------------------------|


Refrão II:
e|---------------------------------------------------------------------------|
B|---------------------------------------------------------------------------|
G|--------------------------------66666666-----------------------------------|
D|--55555555--44444444--55555555--xxxxxxxx-----------------------------------|
A|--xxxxxxxx--xxxxxxxx--xxxxxxxx--44444444-----------------------------------|
E|--33333333--22222222--33333333---------------------------------------------|


e|---------------------------------------------------------------------------|
B|---------------------------------------------------------------------------|
G|------------66666666------------6666---------------------------------------|
D|--55555555--xxxxxxxx--55555555--xxxx--9999---------------------------------|
A|--xxxxxxxx--44444444--55555555--4444--xxxx---------------------------------|
E|--33333333------------33333333--------7777---------------------------------|

Parada I:
e|------------7--------------------------------------------------------------|
B|--10-----10----------------------------------------------------------------|
G|-----9--------9------------------------------------------------------------|
D|-------7---------7---------------------------------------------------------|x 2
A|-------0---------0---------------------------------------------------------|
E|---------------------------------------------------------------------------|

Parada II:
e|---------------------------------------------------------------------------|
B|---------------------------------------------------------------------------|
G|----------------------99999999--6666--4444---------------------------------|
D|--77777777--99999999--xxxxxxxx--xxxx--xxxx---------------------------------|
A|--xxxxxxxx--xxxxxxxx--77777777--4444--2222---------------------------------|
E|--55555555--77777777-------------------------------------------------------|

Introdução x 1

Final:
e|---------------------------------------------------------------------------|
B|---------------------------------------------------------------------------|
G|------------99999999--55555555--77777777-----------------------------------|
D|--77777777--99999999--77777777--77777777-----------------------------------|
A|--77777777--77777777--44444444--55555555-----------------------------------|
E|--55555555-----------------------------------------------------------------|

e|---------------------------------------------------------------------------|
B|---------------------------------------------------------------------------|
G|--------------------------------77777777-----------------------------------|
D|--77777777--55555555--44444444--77777777-----------------------------------|x 4
A|--77777777--77777777--44444444--55555555-----------------------------------|
E|--55555555--44444444--22222222---------------------------------------------|

Clipes