busca

Red Skies

blink-182

Tom: E
Tabbed by J*M*N*E*T(João Marcelo)

Acordes

  F5  A5  B5  G5  E5  G#5 F#5
|---------------------------|
|---------------------------|
|---------------------------|
|-3---7---9---5---2---6---4-|
|-3---7---9---5---2---6---4-|
|-1---5---7---3---0---4---2-|


Intro:
|-----------------|-----------------|-----------------|-----------------|
|-----------------|-----------------|-----------------|-----------------|
|-----------------|-----------------|-----------------|-----------------|
|---2-----1-----2-|-----2---4-------|---2-----1-----2-|-----2---2---1---|
|-----------------|-------------2---|-----------------|-----------------|
|-0-----0-----0---|---0-------------|-0-----0-----0---|---0-------------|


Riff 1:
|-----------------|-----------------|-----------------|-----------------|
|-----------------|-----------------|-----------------|-----------------|
|-----------------|-------------1---|-----------------|-------------1---|
|---2-----2-----2-|-----2---2-------|---2-----2-----2-|-----2---2-------|
|-----------------|-----------------|-----------------|-----------------|
|-0-----0-----0---|---0-------------|-0-----0-----0---|---0-------------|

|-----------------|-----------------|-----------------|-----------------|
|-----------------|-----------------|-----------------|-----------------|
|-----------------|-------------1---|-----------------|-------------1---|
|---2-----2-----2-|-----2---2-------|---2-------0p1p2-|---2-2-2-2-------|
|-----------------|-----------------|---------4-------|-----------------|
|-0-----0-----0---|---0-------------|-0-----0---------|-----------------|


Intro   x4

Riff 1


F5                    A5
Why can't people just understand
F5                       B5     A5          G5
Money's something in the nature of the hand
F5                       A5
Now as we need something of the flu
F5                        B5      A5          G5
All you do is toughen up, nothing more to lose


F5  A5         G5 B5
Change for the better
F5      A5        G5        B5
No more laziness, kills for true
F5 A5            G5        B5
Help another, he works for something
F5   A5          G5 B5
Last night I was crying


Intro   x4

Riff 1


F5                             A5
And all these people they dont comprehend
F5                            B5   A5       G5
All those cute animals aren't even cute too so
F5                           A5
A lot of meals, don't put in a stride
F5                                  B5  A5             G5
Stressing in the mosh, and push her and need other time


F5  A5         G5 B5
Change for the better
F5      A5        G5        B5
No more laziness, kills for true
F5 A5            G5        B5
Help another, he works for something
F5        A5              G5 B5
You can't fight while I'm running

Bridge:
E5 - G#5 - A5 - B5 - A5 - G#5 - F#5  x4


F5                             A5
And all these people they dont comprehend
F5                            B5   A5       G5
All those cute animals aren't even cute too so
F5                           A5
A lot of meals, don't put in a stride
F5                                  B5  A5             G5
Stressing in the mosh, and push her and need other time


F5  A5         G5 B5
Change for the better
F5      A5        G5        B5
No more laziness, kills for true
F5 A5            G5        B5
Help another, he works for something
F5        A5              G5 B5
You can't fight while I'm running

Verso com Lyrics:
F5 - A5 - F5 - B5 - A5 - G5  x2

F5  A5         G5 B5
Change for the better
F5      A5        G5        B5
No more laziness, kills for true
F5 A5            G5        B5
Help another, he works for something
F5        A5              G5 B5
You can't fight while I'm running

Termina com um F5

Clipes