Reebok Commercial

Blink-182

Tom: G
#1t1#(intro pt1)
#1t2#E|--------------------|
B|--------------------|
G|--------------------|
D|-7~--------7---7~---|
A|-7~------5-----7~---|
E|-5~------------5~---|#/1t2##/1t1#

#2t1#(intro pt2)
#2t2#E|----------------------------------------|
B|----------------------------------------|
G|----------------------------------------|
D|-77777-1212121212-1414141414-1212121212-|x4
A|-55555-1010101010-1212121212-1010101010-|
E|----------------------------------------|#/2t2##/2t1#

#3t1#(intro pt3)
#3t2#E|-------------------------|
B|-------------------------|
G|-7xx77-7xx77-4xx44-------|
D|-7xx77-7xx77-4xx44-5xx55-|x4
A|-5xx55-4xx44-2xx22-5xx55-|
E|-------------------3xx33-|#/3t2##/3t1#

#4t1#(pre-verso)
#4t2#E|----------------------------------------|
B|----------------------------------------|
G|-77-99-1111-1212-1414-1212--------------|
D|-77-99-1111-1212-1414-1212--------------|x1 and a half
A|-55-77--9-9-1010-1212-1010-9/10/9-7/9/7-|
E|----------------------------------------|#/4t2##/4t1#

#5t1#(verso)
#5t2#E|----------------------------------|
B|----------------------------------|
G|-77777777-------------------------|
D|-77-77-7-5555555-7777777-55555555-|x4
A|-55-55-5-55-55-5-77-77-7-55-55-5--|
E|---------33-33-3-55-55-5-33-33-3--|#/5t2##/5t1#
then play pre verse twice again

#6t1#(refrão)
#6t2#E|-------------------------|
B|-------------------------|
G|-77777-------------------|
D|-77777-77777-44444-55555-|x4
A|-55555-77777-44444-55555-|
E|-------55555-22222-33333-|#/6t2##/6t1#

#7t1#(solo)
#7t2#E|---------------------------------------------------------------|
B|---------------------------------------------------------------|
G|-777-999-111111-99-7-777-7h999-121212-11-9-777-999-111111-99-7-|
D|---------------------------------------------------------------|
A|---------------------------------------------------------------|
E|---------------------------------------------------------------|#/7t2##/7t1#
#8t1#(cont)
#8t2#E|--------------------10----10-1212-1010-9------10----10-1414-1212-|
B|------------------10--1010--------------10--10--1010-------------|
G|-7p6-9p6-7p6-9p6-------------------------------------------------|
D|-----------------------------------------------------------------|
A|-----------------------------------------------------------------|
E|-----------------------------------------------------------------|#/8t2##/8t1#
#9t1#(cont)
#9t2#E|-10-9------------1212-1010-9--------------1414-1212-10-9-|
B|------1010101010------------10--1010101010---------------|
G|---------------------------------------------------------|
D|---------------------------------------------------------|
A|---------------------------------------------------------|
E|---------------------------------------------------------|#/9t2##/9t1#
#10t1#(cont)
#10t2#E|-9h109109h109h109h109h109h109h10-9h129h129h129h129h129h129h129h12-|
B|------------------------------------------------------------------|
G|------------------------------------------------------------------|
D|------------------------------------------------------------------|
A|------------------------------------------------------------------|
E|------------------------------------------------------------------|#/10t2##/10t1#

you are better than me girls money and everything
i need,try to compete with you,but you beat me
at everything i do,i see in you the things that i
would like to be,but im different from you so you
will have TO BE LIKE ME

i cant be wrong my personalitys what i choose,
i was brought up without a silver cup,
i wont bother about things own by you,
4 all the world,and material things and ammo
and more,the jealousey of you and me
i wont have change all my own score
Composição: Blink 182Colaboração e revisão: lucas