Tom: G
#1t1##1t2#------------------------------------------------------------------------------
------------------------------------------------------------------------------
----9--11--------9--11---------777777-999-777777-----777777-999-777777--------
-7--9--11-12--7--9--11-12--777-777777-999-777777-777-777777-999-777777--------
-7--7--9--12--7--7--9--12--777-555555-777-555555-777-555555-777-555555--------
-5--------10--5--------10--555-------------------555--------------------------#/1t2##/1t1#
 Intro, the intro stops here. (12 12 10)

#2t1##2t2#------------------------------------------------------------------------------
------------------------------------------------------------------------------
-99999999-----777777-999-777777-----777777-999-777777-99999999-------99999----
-99999999-777-777777-999-777777-777-777777-999-777777-99999999-77777-99999----
-77777777-777-555555-777-555555-777-555555-777-555555-77777777-77777-77777----
----------555-------------------555----------------------------55555----------#/2t2##/2t1#


#3t1##3t2#------------------------------------------------------------------------------
------------------------------------------------------------------------------
-1111111111------------------99999-1111111111----------------9999----7777-----
-1111111111-1212121212-77777-99999-1111111111-1212121212--77-9999-77-7777-77--
--9-9-9-9-9-1212121212-77777-77777--9-9-9-9-9-1212121212--77-7777-77-5555-77--
------------1010101010-55555------------------1010101010--55------55------55--#/3t2##/3t1#


#4t1##4t2#------------------------------------------------------------------------------
------------------------------------------------------------------------------
-9999----7-6------------------------------------------------------------------
-9999-77-7-6-7----------------------------------------------------------------
-7777-77-5-4-7----------------------------------------------------------------
------55-----5----------------------------------------------------------------#/4t2##/4t1#
 repeat everything u have just played, then repeat the intro again once then

#5t1##5t2#------------------------------------------------------------------------------
------------------------------------------------------------------------------
-------99999-7777777-666------------------------------------------------------
-77777-99999-7777777-666-7----------------------------------------------------
-77777-77777-5555555-444-7----------------------------------------------------
-55555-------------------5----------------------------------------------------#/5t2##/5t1#
 play the outro (above) 5 times, then ur done! :)
Composição: Colaboração e revisão: