busca

Waggy

blink-182

Tom: A
Intro x1
E|------------------|------------------|
B|----3--2------3-2-|----3--2------3-2-|
G|----2--2------2-2-|----2--2------2-2-|
D|-2----------2-----|-2----------2-----|
A|-0----------0-----|-0----------0-----|
E|------------------|------------------|

Pre Verse x1
E|-----------------|-----------------|-----------------|
B|-----------------|-----------------|-----------------|
G|-6---6-6-6-6-6-6-|-6---6-6-6-6-6-6-|-6---6-6-6-6-6-6-|
D|-x---x-x-x-x-x-x-|-x---x-x-x-x-x-x-|-x---x-x-x-x-x-x-|
A|-4---4-4-4-4-4-4-|-4---4-4-4-4-4-4-|-4---4-4-4-4-4-4-|
E|-----------------|-----------------|-----------------|

E|--------------------------------|--------------------------------|
B|--------------------------------|--------------------------------|
G|-9--7--6--7--9------------------|-9--7--6--7--9------------------|
D|-x--x--x--x--x--7---7-7-7-7-7-7-|-x--x--x--x--x--7---7-7-7-7-7-7-|
A|-7--5--4--5--7--x---x-x-x-x-x-x-|-7--5--4--5--7--x---x-x-x-x-x-x-|
E|----------------5---5-5-5-5-5-5-|----------------5---5-5-5-5-5-5-|

Verse x2
"watching your house shrink away"
E|------------------|------------------|------------------|------------------|
B|----3--2------3-2-|----3--2------3-2-|----3--2------3-2-|----3--2------3-2-|
G|----2--2------2-2-|----2--2------2-2-|----2--2------2-2-|----2--2------2-2-|
D|-2----------2-----|-2----------2-----|-4----------4-----|-0----------0-----|
A|-0----------0-----|-0----------0-----|-4----------4-----|-0----------0-----|
E|------------------|------------------|-2----------2-----|------------------|

Pre-Chorus a x2
"i'm trying to be what you want me to me"
E|---------|-----------------------------|-----------------|-----------------|
B|--2------|-----------------------------|-----------------|-----------------|
G|--2------|-----------------------------|-7---7-7-7-7-7-7-|-7---7-7-7-7-7-7-|
D|--2------|-4---4-4-4-4-4-4-4-4-4-4-4-4-|-7---7-7-7-7-7-7-|-7---7-7-7-7-7-7-|
A|--0------|-4---4-4-4-4-4-4-4-4-4-4-4-4-|-5---5-5-5-5-5-5-|-5---5-5-5-5-5-5-|
E|---------|-2---2-2-2-2-2-2-2-2-2-2-2-2-|-----------------|-----------------|

Chorus x1
"i think you need some time alone"
E|--------------|--------------|--------------|--------------|
B|--------------|--------------|--------------|--------------|
G|--------------|-7--7-7--7-7--|-4--4-4--4-4--|-4--4-4--4-4--|
D|-4--4-4--4-4--|-7--7-7--7-7--|-4--4-4--4-4--|-4--4-4--4-4--|
A|-4--4-4--4-4--|-5--5-5--5-5--|-2--2-2--2-2--|-2--2-2--2-2--|
E|-2--2-2--2-2--|--------------|--------------|--------------|

E|--------------|--------------|--------------|--------------|
B|--------------|--------------|--------------|--------------|
G|--------------|-7--7-7--7-7--|-2--2-2--2-2--|-2--2-2--2-2--|
D|-4--4-4--4-4--|-7--7-7--7-7--|-2--2-2--2-2--|-2--2-2--2-2--|
A|-4--4-4--4-4--|-5--5-5--5-5--|-0--0-0--0-0--|-0--0-0--0-0--|
E|-2--2-2--2-2--|--------------|--------------|--------------|

E|--------------|--------------|--------------|--------------|
B|--------------|--------------|--------------|--------------|
G|--------------|-7--7-7--7-7--|-4--4-4--4-4--|-4--4-4--4-4--|
D|-4--4-4--4-4--|-7--7-7--7-7--|-4--4-4--4-4--|-4--4-4--4-4--|
A|-4--4-4--4-4--|-5--5-5--5-5--|-2--2-2--2-2--|-2--2-2--2-2--|
E|-2--2-2--2-2--|--------------|--------------|--------------|

E|--------------|--------------|--------------|--------------|
B|--------------|--------------|--------------|--------------|
G|--------------|-7--7-7--7-7--|--------------|--------------|
D|-4--4-4--4-4--|-7--7-7--7-7--|--------------|--------------|
A|-4--4-4--4-4--|-5--5-5--5-5--|--------------|--------------|
E|-2--2-2--2-2--|--------------|--------------|--------------|

Pre Verse x2
E|-----------------|-----------------|-----------------|
B|-----------------|-----------------|-----------------|
G|-6---6-6-6-6-6-6-|-6---6-6-6-6-6-6-|-6---6-6-6-6-6-6-|
D|-x---x-x-x-x-x-x-|-x---x-x-x-x-x-x-|-x---x-x-x-x-x-x-|
A|-4---4-4-4-4-4-4-|-4---4-4-4-4-4-4-|-4---4-4-4-4-4-4-|
E|-----------------|-----------------|-----------------|

E|--------------------------------|--------------------------------|
B|--------------------------------|--------------------------------|
G|-9--7--6--7--9------------------|-9--7--6--7--9------------------|
D|-x--x--x--x--x--7---7-7-7-7-7-7-|-x--x--x--x--x--7---7-7-7-7-7-7-|
A|-7--5--4--5--7--x---x-x-x-x-x-x-|-7--5--4--5--7--x---x-x-x-x-x-x-|
E|----------------5---5-5-5-5-5-5-|----------------5---5-5-5-5-5-5-|

Verse x2
"is this all going to be just another time"
E|------------------|------------------|------------------|------------------|
B|----3--2------3-2-|----3--2------3-2-|----3--2------3-2-|----3--2------3-2-|
G|----2--2------2-2-|----2--2------2-2-|----2--2------2-2-|----2--2------2-2-|
D|-2----------2-----|-2----------2-----|-4----------4-----|-0----------0-----|
A|-0----------0-----|-0----------0-----|-4----------4-----|-0----------0-----|
E|------------------|------------------|-2----------2-----|------------------|

Pre-Chorus a x2
"but what did you expect from me"
E|---------|-----------------------------|-----------------|-----------------|
B|--2------|-----------------------------|-----------------|-----------------|
G|--2------|-----------------------------|-7---7-7-7-7-7-7-|-7---7-7-7-7-7-7-|
D|--2------|-4---4-4-4-4-4-4-4-4-4-4-4-4-|-7---7-7-7-7-7-7-|-7---7-7-7-7-7-7-|
A|--0------|-4---4-4-4-4-4-4-4-4-4-4-4-4-|-5---5-5-5-5-5-5-|-5---5-5-5-5-5-5-|
E|---------|-2---2-2-2-2-2-2-2-2-2-2-2-2-|-----------------|-----------------|

Chorus x1
"i don't wanna live this lie again"
E|--------------|--------------|--------------|--------------|
B|--------------|--------------|--------------|--------------|
G|--------------|-7--7-7--7-7--|-4--4-4--4-4--|-4--4-4--4-4--|
D|-4--4-4--4-4--|-7--7-7--7-7--|-4--4-4--4-4--|-4--4-4--4-4--|
A|-4--4-4--4-4--|-5--5-5--5-5--|-2--2-2--2-2--|-2--2-2--2-2--|
E|-2--2-2--2-2--|--------------|--------------|--------------|

E|--------------|--------------|--------------|--------------|
B|--------------|--------------|--------------|--------------|
G|--------------|-7--7-7--7-7--|-2--2-2--2-2--|-2--2-2--2-2--|
D|-4--4-4--4-4--|-7--7-7--7-7--|-2--2-2--2-2--|-2--2-2--2-2--|
A|-4--4-4--4-4--|-5--5-5--5-5--|-0--0-0--0-0--|-0--0-0--0-0--|
E|-2--2-2--2-2--|--------------|--------------|--------------|

E|--------------|--------------|--------------|--------------|
B|--------------|--------------|--------------|--------------|
G|--------------|-7--7-7--7-7--|-4--4-4--4-4--|-4--4-4--4-4--|
D|-4--4-4--4-4--|-7--7-7--7-7--|-4--4-4--4-4--|-4--4-4--4-4--|
A|-4--4-4--4-4--|-5--5-5--5-5--|-2--2-2--2-2--|-2--2-2--2-2--|
E|-2--2-2--2-2--|--------------|--------------|--------------|

E|--------------|--------------|--------------|--------------|
B|--------------|--------------|--------------|--------------|
G|--------------|-7--7-7--7-7--|--------------|--------------|
D|-4--4-4--4-4--|-7--7-7--7-7--|--------------|--------------|
A|-4--4-4--4-4--|-5--5-5--5-5--|--------------|--------------|
E|-2--2-2--2-2--|--------------|--------------|--------------|

Interlude a x1
E|--------------|--------------|--------------|--------------|
B|--------------|--------------|--------------|--------------|
G|--7-----------|--------------|--------------|--------------|
D|--7-----------|--------------|--------------|--------------|
A|--5-----------|--------------|----------7-7-|----------7-7-|
E|--------------|--------------|----------5-5-|----------5-5-|
                                          ...            ...

Interlude b x8
E|--------------|--------------|----------|
B|--------------|--------------|----------|
G|--------------|--------------|----------|
D|--------------|--------------|----------|
A|-4p0-0--5p0-0-|-4p0-0--5p0-0-|-4p0--5p0-|
E|--------------|--------------|----------|

Pre Verse x2
"its never over til it's done"
E|-----------------|-----------------|-----------------|
B|-----------------|-----------------|-----------------|
G|-6---6-6-6-6-6-6-|-6---6-6-6-6-6-6-|-6---6-6-6-6-6-6-|
D|-x---x-x-x-x-x-x-|-x---x-x-x-x-x-x-|-x---x-x-x-x-x-x-|
A|-4---4-4-4-4-4-4-|-4---4-4-4-4-4-4-|-4---4-4-4-4-4-4-|
E|-----------------|-----------------|-----------------|

E|--------------------------------|--------------------------------|
B|--------------------------------|--------------------------------|
G|-9--7--6--7--9------------------|-9--7--6--7--9------------------|
D|-x--x--x--x--x--7---7-7-7-7-7-7-|-x--x--x--x--x--7---7-7-7-7-7-7-|
A|-7--5--4--5--7--x---x-x-x-x-x-x-|-7--5--4--5--7--x---x-x-x-x-x-x-|
E|----------------5---5-5-5-5-5-5-|----------------5---5-5-5-5-5-5-|

Verse til end of song
E|------------------|------------------|------------------|------------------|
B|----3--2------3-2-|----3--2------3-2-|----3--2------3-2-|----3--2------3-2-|
G|----2--2------2-2-|----2--2------2-2-|----2--2------2-2-|----2--2------2-2-|
D|-2----------2-----|-2----------2-----|-4----------4-----|-0----------0-----|
A|-0----------0-----|-0----------0-----|-4----------4-----|-0----------0-----|
E|------------------|------------------|-2----------2-----|------------------|

End On
E|-----|
B|-----|
G|--2--|
D|--2--|
A|--0--|
E|-----|

Clipes