A5
12
X022XX
B5
134
X244XX
D5
134
X577XX
F#5
134
244XXX
Tom: G
[Introdução]

#1t1##1t2#E|---------------------------------------|
B|---------------------------------------|
G|----7-6-------7-6------7-6------7-6----|
D|----7-7-------7-7------7-7------7-7----|
A|-0~~------0~~------0~~------0~~--------|
E|---------------------------------------|#/1t2##/1t1#

#2t1##2t2#E|----------------------------------------|
B|----------------------------------------|
G|-666666666---9-7-6-7-9---------7-9------|
D|-xxxxxxxxx---x-x-x-x-x-7777----x-x-7777-| 2x
A|-444444444---7-5-4-5-7-xxxx----5-7-xxxx-|
E|-----------------------5555--------5555-|#/2t2##/2t1#

[Verso 01]

#3t1#  A5
#3t2#E|---------------------------------------|
B|---------------------------------------|
G|----7-6-------7-6------7-6------7-6----|
D|----7-7-------7-7------7-7------7-7----|
A|-0~~------0~~------0~~------0~~--------|
E|---------------------------------------|#/3t2##/3t1#

#4t1#  F#5                D5
#4t2#E|---------------------------------------|
B|---------------------------------------|
G|----7-6-------7-6------7-6------7-6----|
D|----7-7-------7-7------7-7------7-7----|
A|-9~~------9~~------5~~------5~~--------|
E|---------------------------------------|#/4t2##/4t1#

A5
Watching your house shrink
                     F#5
away in my rear view mirror
            D5   
As I drive away 
A5
Wishing that I could take back all those
                 F#5
words that meant nothing
              D5     
That I didn't say

#5t1#  A5       F#5            D5
#5t2#E|---------------------------------------|
B|---------------------------------------|
G|-2~~~~------------------7-7-7-7-7-7----|
D|-2~~~~---4-4-4-4-4-4----7-7-7-7-7-7----|
A|-0~~~~---4-4-4-4-4-4----5-5-5-5-5-5----|
E|---------2-2-2-2-2-2-------------------|#/5t2##/5t1#

A5
I'm trying
   F#5                    D5
to be what you want me to be
    A5
But it's so damn hard to
keep playing the part of
    F#5             D5
the fool Week after week

[Refrão]

F#5         D5             B5 
i think you need some time alone 
F#5         D5              A5 
you say you want someone to call your own 
F#5       D5           B5 
open your eyes you can suck in your pride 
F#5                    D5
you can live your life all on your own

#6t1##6t2#E|----------------------------------------|
B|----------------------------------------|
G|-666666666---9-7-6-7-9---------7-9------|
D|-xxxxxxxxx---x-x-x-x-x-7777----x-x-7777-| 2x
A|-444444444---7-5-4-5-7-xxxx----5-7-xxxx-|
E|-----------------------5555--------5555-|#/6t2##/6t1#

[Verso 02]

#7t1#  A5
#7t2#E|---------------------------------------|
B|---------------------------------------|
G|----7-6-------7-6------7-6------7-6----|
D|----7-7-------7-7------7-7------7-7----|
A|-0~~------0~~------0~~------0~~--------|
E|---------------------------------------|#/7t2##/7t1#

#8t1#  F#5                D5
#8t2#E|---------------------------------------|
B|---------------------------------------|
G|----7-6-------7-6------7-6------7-6----|
D|----7-7-------7-7------7-7------7-7----|
A|-9~~------9~~------5~~------5~~--------|
E|---------------------------------------|#/8t2##/8t1#

A5
Is this all going to 
be just another time
F#5                  D5
   That we play this game
     A5
I've tried to convince you
that things could be different
    F#5                     D5
but somehow they end up the same

#9t1#  A5       F#5            D5
#9t2#E|---------------------------------------|
B|---------------------------------------|
G|-2~~~~------------------7-7-7-7-7-7----|
D|-2~~~~---4-4-4-4-4-4----7-7-7-7-7-7----|
A|-0~~~~---4-4-4-4-4-4----5-5-5-5-5-5----|
E|---------2-2-2-2-2-2-------------------|#/9t2##/9t1#

    A5
But what did you expect from me
F#5                      D5 
   What am I supposed to do 
A5
You say  that you're starting to feel 
like you're getting 
F#5            D5
lost Well I do too

[Refrão]

F#5            D5           B5
I don't wanna live this lie again
F#5         D5                            A5     
I know I'll get it right but I don't know when
F#5          D5             B5
I'll open my eyes, I've got something inside
F#5                      D5
I'll just jack off in my room until then

[Interlúdio]

#10t1#  A5
#10t2#E|---------------------| --------------------------------------|
B|---------------------| --------------------------------------|
G|-2~~~~~~~~-2-2---2-2-| --------------------------------------|
D|-2~~~~~~~~-2-2---2-2-| --------------------------------------|
A|-0~~~~~~~~-0-0---0-0-| -4p0-0--5p0-0--4p0-0--5p0-0--4p0--5p0-|
E|---------------------| --------------------------------------|
    P.M      ...   ...#/10t2##/10t1#

[Outro]

#11t1##11t2#E|----------------------------------------|
B|----------------------------------------|
G|-666666666---9-7-6-7-9---------7-9------|
D|-xxxxxxxxx---x-x-x-x-x-7777----x-x-7777-| 2x
A|-444444444---7-5-4-5-7-xxxx----5-7-xxxx-|
E|-----------------------5555--------5555-|#/11t2##/11t1#

#12t1#  A5
#12t2#E|---------------------------------------|
B|---------------------------------------|
G|----7-6-------7-6------7-6------7-6----|
D|----7-7-------7-7------7-7------7-7----|
A|-0~~------0~~------0~~------0~~--------|
E|---------------------------------------|
                                            2x#/12t2##/12t1#
#13t1#  F#5                D5
#13t2#E|---------------------------------------|
B|---------------------------------------|
G|----7-6-------7-6------7-6------7-6----|
D|----7-7-------7-7------7-7------7-7----|
A|-9~~------9~~------5~~------5~~--------|
E|---------------------------------------|#/13t2##/13t1#

A5
  It's never over till it’s done
F#5
   And I don't think 
                D5
That you're the one

[Final]

#14t1#  A5
#14t2#E|---------------------------------------|
B|---------------------------------------|
G|----7-6-------7-6------7-6------7-6----|
D|----7-7-------7-7------7-7------7-7----|
A|-0~~------0~~------0~~------0~~--------|
E|---------------------------------------|#/14t2##/14t1#
                                           
#15t1#  F#5                D5
#15t2#E|---------------------------------------|
B|---------------------------------------|
G|----7-6-------7-6------7-6------7-6----|
D|----7-7-------7-7------7-7------7-7----|
A|-9~~------9~~------5~~------5~~--------|
E|---------------------------------------|#/15t2##/15t1#

#16t1#  A5      
#16t2#E|---------------------------------------|
B|---------------------------------------|
G|-2~------------------------------------|
D|-2~------------------------------------|
A|-0~------------------------------------|
E|---------------------------------------|#/16t2##/16t1#
Composição: Colaboração e revisão: Renan LuizRodrigo Nunes