busca

Waggy

blink-182

Tom: A
[Introdução]

E|---------------------------------------|
B|---------------------------------------|
G|----7-6-------7-6------7-6------7-6----|
D|----7-7-------7-7------7-7------7-7----|
A|-0~~------0~~------0~~------0~~--------|
E|---------------------------------------|

E|----------------------------------------|
B|----------------------------------------|
G|-666666666---9-7-6-7-9---------7-9------|
D|-xxxxxxxxx---x-x-x-x-x-7777----x-x-7777-| 2x
A|-444444444---7-5-4-5-7-xxxx----5-7-xxxx-|
E|-----------------------5555--------5555-|

[Verso 01]

  A5
E|---------------------------------------|
B|---------------------------------------|
G|----7-6-------7-6------7-6------7-6----|
D|----7-7-------7-7------7-7------7-7----|
A|-0~~------0~~------0~~------0~~--------|
E|---------------------------------------|

  F#5                D5
E|---------------------------------------|
B|---------------------------------------|
G|----7-6-------7-6------7-6------7-6----|
D|----7-7-------7-7------7-7------7-7----|
A|-9~~------9~~------5~~------5~~--------|
E|---------------------------------------|

A5
Watching your house shrink
                     F#5
away in my rear view mirror
            D5   
As I drive away 
A5
Wishing that I could take back all those
                 F#5
words that meant nothing
              D5     
That I didn't say

  A5       F#5            D5
E|---------------------------------------|
B|---------------------------------------|
G|-2~~~~------------------7-7-7-7-7-7----|
D|-2~~~~---4-4-4-4-4-4----7-7-7-7-7-7----|
A|-0~~~~---4-4-4-4-4-4----5-5-5-5-5-5----|
E|---------2-2-2-2-2-2-------------------|

A5
I'm trying
   F#5                    D5
to be what you want me to be
    A5
But it's so damn hard to
keep playing the part of
    F#5             D5
the fool Week after week

[Refrão]

F#5         D5             B5 
i think you need some time alone 
F#5         D5              A5 
you say you want someone to call your own 
F#5       D5           B5 
open your eyes you can suck in your pride 
F#5                    D5
you can live your life all on your own

E|----------------------------------------|
B|----------------------------------------|
G|-666666666---9-7-6-7-9---------7-9------|
D|-xxxxxxxxx---x-x-x-x-x-7777----x-x-7777-| 2x
A|-444444444---7-5-4-5-7-xxxx----5-7-xxxx-|
E|-----------------------5555--------5555-|

[Verso 02]

  A5
E|---------------------------------------|
B|---------------------------------------|
G|----7-6-------7-6------7-6------7-6----|
D|----7-7-------7-7------7-7------7-7----|
A|-0~~------0~~------0~~------0~~--------|
E|---------------------------------------|

  F#5                D5
E|---------------------------------------|
B|---------------------------------------|
G|----7-6-------7-6------7-6------7-6----|
D|----7-7-------7-7------7-7------7-7----|
A|-9~~------9~~------5~~------5~~--------|
E|---------------------------------------|

A5
Is this all going to 
be just another time
F#5                  D5
   That we play this game
     A5
I've tried to convince you
that things could be different
    F#5                     D5
but somehow they end up the same

  A5       F#5            D5
E|---------------------------------------|
B|---------------------------------------|
G|-2~~~~------------------7-7-7-7-7-7----|
D|-2~~~~---4-4-4-4-4-4----7-7-7-7-7-7----|
A|-0~~~~---4-4-4-4-4-4----5-5-5-5-5-5----|
E|---------2-2-2-2-2-2-------------------|

    A5
But what did you expect from me
F#5                      D5 
   What am I supposed to do 
A5
You say  that you're starting to feel 
like you're getting 
F#5            D5
lost Well I do too

[Refrão]

F#5            D5           B5
I don't wanna live this lie again
F#5         D5                            A5     
I know I'll get it right but I don't know when
F#5          D5             B5
I'll open my eyes, I've got something inside
F#5                      D5
I'll just jack off in my room until then

[Interlúdio]

  A5
E|---------------------| --------------------------------------|
B|---------------------| --------------------------------------|
G|-2~~~~~~~~-2-2---2-2-| --------------------------------------|
D|-2~~~~~~~~-2-2---2-2-| --------------------------------------|
A|-0~~~~~~~~-0-0---0-0-| -4p0-0--5p0-0--4p0-0--5p0-0--4p0--5p0-|
E|---------------------| --------------------------------------|
    P.M      ...   ...

[Outro]

E|----------------------------------------|
B|----------------------------------------|
G|-666666666---9-7-6-7-9---------7-9------|
D|-xxxxxxxxx---x-x-x-x-x-7777----x-x-7777-| 2x
A|-444444444---7-5-4-5-7-xxxx----5-7-xxxx-|
E|-----------------------5555--------5555-|

  A5
E|---------------------------------------|
B|---------------------------------------|
G|----7-6-------7-6------7-6------7-6----|
D|----7-7-------7-7------7-7------7-7----|
A|-0~~------0~~------0~~------0~~--------|
E|---------------------------------------|
                                            2x

  F#5                D5
E|---------------------------------------|
B|---------------------------------------|
G|----7-6-------7-6------7-6------7-6----|
D|----7-7-------7-7------7-7------7-7----|
A|-9~~------9~~------5~~------5~~--------|
E|---------------------------------------|

A5
  It's never over till it’s done
F#5
   And I don't think 
                D5
That you're the one

[Final]

  A5
E|---------------------------------------|
B|---------------------------------------|
G|----7-6-------7-6------7-6------7-6----|
D|----7-7-------7-7------7-7------7-7----|
A|-0~~------0~~------0~~------0~~--------|
E|---------------------------------------|
                                           
  F#5                D5
E|---------------------------------------|
B|---------------------------------------|
G|----7-6-------7-6------7-6------7-6----|
D|----7-7-------7-7------7-7------7-7----|
A|-9~~------9~~------5~~------5~~--------|
E|---------------------------------------|

  A5      
E|---------------------------------------|
B|---------------------------------------|
G|-2~------------------------------------|
D|-2~------------------------------------|
A|-0~------------------------------------|
E|---------------------------------------|

Clipes