Só Passando Pelo Que Passei

Maria Cecília e Rodolfo

A
123
X02220
A#m
234
X13321
Ab
234
431114
Db
234
X46664
Eb
234
X65343
Eb/G
1234
3X134X
Fm
34
133111
Tom: G
Intro 2x: Ab  Eb/G  Fm  Db
Solo:
  Parte 1:           Parte 2:
#1t1##1t2#E|-----------------|-----------|
B|------9p8---9p8--|-----------|
G|--6/8-----8------|---8-8-8---|
D|-----------------|-----------|
A|-----------------|-----------|
E|-----------------|-----------|#/1t2##/1t1#

(repetir Parte 1)

#2t1##2t2#E|------------|
B|------------|
G|---8-8-8/10-|
D|------------|
A|------------|
E|------------|#/2t2##/2t1#

(repetir 1 e 2)

(repetir Parte 1)

#3t1##3t2#E|------------|
B|-----8-8/9--|
G|---8--------|
D|------------|
A|------------|
E|------------|#/3t2##/3t1#

Ab
Faço de tudo pra te agradar
Eb/G
Mas só os meus defeitos que você enxerga
Fm
Dizendo que eu minto pelo seu amor
Db
E tudo que eu faço já não tem valor

Ab
Talvez se a gente trocasse de coração
Eb/G
Você colocaria de vez na cabeça
Fm
Te amo e não consigo viver sem você
Db             Eb             Ab Ab
Se você fosse eu iria entender

       Eb/G                    Fm
Só você passando pelo que eu passei
              Db                      Ab
Pra cair na real que eu sempre te amei
        Eb/G                    Fm
Te peço que nao duvide mais de mim
             Db                      Ab
Me deixa de uma vez eu te fazer feliz (2x)
Solo:
#4t1##4t2#E|-----------------|
B|--7h8-7----------|
G|--------9-7------|
D|------------9-7--|
A|-----------------|
E|-----------------|#/4t2##/4t1#

Ab
Faço de tudo pra te agradar
Eb/G
Mas só os meus defeitos que você enxerga
Fm
Dizendo que eu minto pelo seu amor
Db
E tudo que eu faço já não tem valor

Ab
Talvez se a gente trocasse de coração
Eb/G
Você colocaria de vez na cabeça
Fm
Te amo e não consigo viver sem você
Db             Eb             Ab Ab
Se você fosse eu iria entender

Refrão:
Eb/G              Fm
Meu amor  eu te amo
Db                        Ab
Será que você não percebeu?

Eb/G                  Fm
Meu amor será que só você não vê
Db                        Ab
O quanto eu gosto de você?
#5t1#    Ab            Eb/G  Ab A A#m         Fm  Eb Ab
#5t2#E|--------------------------------------------9-9~-8-----6----|
B|------9-8---------------------6--------9------------9-----9-|
G|-6/8------10-8-----8----8--9------8/10---10-----------------|
D|----------------10---10-------------------------------------|
A|------------------------------------------------------------|
E|------------------------------------------------------------|#/5t2##/5t1#
Composição: Colaboração e revisão: Dionatan_didi@hotmail.comJeferson FreireCristiano Garcia