busca

Só Passando Pelo Que Passei

Maria Cecília e Rodolfo

Tom: G#
Intro 2x: G#  D#/G  Fm  C#
Solo:
  Parte 1:           Parte 2:
E|-----------------|-----------|
B|------9p8---9p8--|-----------|
G|--6/8-----8------|---8-8-8---|
D|-----------------|-----------|
A|-----------------|-----------|
E|-----------------|-----------|

(repetir Parte 1)

E|------------|
B|------------|
G|---8-8-8/10-|
D|------------|
A|------------|
E|------------|

(repetir 1 e 2)

(repetir Parte 1)

E|------------|
B|-----8-8/9--|
G|---8--------|
D|------------|
A|------------|
E|------------|

G#
Faço de tudo pra te agradar
D#/G
Mas só os meus defeitos que você enxerga
Fm
Dizendo que eu minto pelo seu amor
C#
E tudo que eu faço já não tem valor

G#
Talvez se a gente trocasse de coração
D#/G
Você colocaria de vez na cabeça
Fm
Te amo e não consigo viver sem você
C#             D#             G# G#
Se você fosse eu iria entender

       D#/G                    Fm
Só você passando pelo que eu passei
              C#                      G#
Pra cair na real que eu sempre te amei
        D#/G                    Fm
Te peço que nao duvide mais de mim
             C#                      G#
Me deixa de uma vez eu te fazer feliz (2x)
Solo:
E|-----------------|
B|--7h8-7----------|
G|--------9-7------|
D|------------9-7--|
A|-----------------|
E|-----------------|

G#
Faço de tudo pra te agradar
D#/G
Mas só os meus defeitos que você enxerga
Fm
Dizendo que eu minto pelo seu amor
C#
E tudo que eu faço já não tem valor

G#
Talvez se a gente trocasse de coração
D#/G
Você colocaria de vez na cabeça
Fm
Te amo e não consigo viver sem você
C#             D#             G# G#
Se você fosse eu iria entender

Refrão:
D#/G              Fm
Meu amor  eu te amo
C#                        G#
Será que você não percebeu?

D#/G                  Fm
Meu amor será que só você não vê
C#                        G#
O quanto eu gosto de você?
    G#            D#/G  G# A A#m         Fm  D# G#
E|--------------------------------------------9-9~-8-----6----|
B|------9-8---------------------6--------9------------9-----9-|
G|-6/8------10-8-----8----8--9------8/10---10-----------------|
D|----------------10---10-------------------------------------|
A|------------------------------------------------------------|
E|------------------------------------------------------------|

Clipes

Cifra Club Pro

Aproveite o Cifra Club com benefícios exclusivos e sem anúncios
Cifra Club Pro
Aproveite o Cifra Club com benefícios exclusivos e sem anúncios