busca

Alien

Pennywise

Intro. 4x
G|-------------------|
D|-------------------|
A|---------66666666--|
E|-33333333----------|

Verso
G|-------------------|-------------------|-------------------|----------------|
D|-------------------|-------------------|-------------------|----------------|
A|-----5555-6666-----|-----5555-6666-565-|-----5555-6666-----|-----5555-6666--|
E|-3333---------6666-|-3333---------6----|-3333---------6666-|-3333---------6-|


Refrão     3x            
G|------------------------|--------------------|
D|------------------------|--------------------|
A|-66666-88888-55555------|-66666-88888-55555--|
E|------------------33333-|------------------3-|


       X4
G|-------------------|
D|-------------------|
A|---------66666666--|
E|-33333333----------|


Verso
G|-------------------|-------------------|-------------------|----------------|
D|-------------------|-------------------|-------------------|----------------|
A|-----5555-6666-----|-----5555-6666-565-|-----5555-6666-----|-----5555-6666--|
E|-3333---------6666-|-3333---------6----|-3333---------6666-|-3333---------6-|


Refrão     3x            
G|------------------------|--------------------|
D|------------------------|--------------------|
A|-66666-88888-55555------|-66666-88888-55555--|
E|------------------33333-|------------------3-|


Guitar Solo

      X4
G|-------------------|
D|-------------------|
A|---------66666666--|
E|-33333333----------|


G|-------------------|-------------------|-------------------|----------------|
D|-------------------|-------------------|-------------------|----------------|
A|-----5555-6666-----|-----5555-6666-565-|-----5555-6666-----|-----5555-6666--|
E|-3333---------6666-|-3333---------6----|-3333---------6666-|-3333---------6-|


Baixo

        X4
G|-------------------|
D|-------------------|
A|---------66666666--|
E|-33333333----------|

G|-------------------|-------------------|-------------------|----------------|
D|-------------------|-------------------|-------------------|----------------|
A|-----5555-6666-----|-----5555-6666-565-|-----5555-6666-----|-----5555-6666--|
E|-3333---------6666-|-3333---------6----|-3333---------6666-|-3333---------6-|

Refrão     3x            
G|------------------------|--------------------|
D|------------------------|--------------------|
A|-66666-88888-55555------|-66666-88888-55555--|
E|------------------33333-|------------------3-|


     X4
G|-------------------|
D|-------------------|
A|---------66666666--|
E|-33333333----------|


  Where are the aliens? We're the aliens
G|-----------------------------------------------|
D|-----------------------------------------------|
A|--------66666666-------6666666--------6-5-3-1--|
E|-3333333--------3333333-------33333333---------|

Clipes

Cifra Club Pro

Aproveite o Cifra Club com benefícios exclusivos e sem anúncios
7 dias grátis
Cifra Club Pro
Aproveite o Cifra Club com benefícios exclusivos e sem anúncios
7 dias grátis