busca

Ghost's On The Dance Floor

blink-182

Tom: E
Intro:
E|-------------------------------|
B|-------------------------------|
G|-------------------------------|
D|--9-9-9-9-9-9-9-9-9------------|
A|-------------------------------|
E|--9-9-7-7-7-7-7-7-7------------|

Verso 1:
E|----------------------------------------------|
B|----------------------------------------------|
G|--11-11-11-11--9-9--8-8--9-9-9-9--8-8-8-8--9--|
D|--9--9--9--9---9-9--9-9--9-9-9-9--9-9-9-9--9--|
A|--x--x--x--x---x-x--x-x--x-x-x-x--x-x-x-x--x--|
E|----------------------------------------------|

Refrão:
E|------------------------------|
B|------------------------------|
G|--4---9-------4---9-----------|
D|--4---9---4---4---9---4-------|
A|--2---7---4---2---7---4-------|
E|----------2-----------2-------|

Intro 2:
E|-------------------------------|
B|-------------------------------|
G|-------------------------------|
D|--9-9-9-9-9-9-9-9-9------------|
A|-------------------------------|
E|--9-9-7-7-7-7-7-7-7------------|

Verse 2:
E|----------------------------------------------|
B|----------------------------------------------|
G|--11-11-11-11--9-9--8-8--9-9-9-9--8-8-8-8--9--|
D|--9--9--9--9---9-9--9-9--9-9-9-9--9-9-9-9--9--|
A|--x--x--x--x---x-x--x-x--x-x-x-x--x-x-x-x--x--|
E|----------------------------------------------|

Refrão 2:
E|------------------------------|
B|------------------------------|
G|--4---9-------4---9-----------|
D|--4---9---4---4---9---4-------|
A|--2---7---4---2---7---4-------|
E|----------2-----------2-------|

Refrão 3:
E|------------------------------|
B|------------------------------|
G|--4---9-------4---9-----------|
D|--4---9---4---4---9---4-------|
A|--2---7---4---2---7---4-------|
E|----------2-----------2-------|

E|------|
B|------|
G|--4---|
D|--4---|
A|--2---|
E|------|

Clipes