Ghost's On The Dance Floor

Blink-182

Tom: G
#1t1#Intro:
#1t2#E|-------------------------------|
B|-------------------------------|
G|-------------------------------|
D|--9-9-9-9-9-9-9-9-9------------|
A|-------------------------------|
E|--9-9-7-7-7-7-7-7-7------------|#/1t2##/1t1#

#2t1#Verso 1:
#2t2#E|----------------------------------------------|
B|----------------------------------------------|
G|--11-11-11-11--9-9--8-8--9-9-9-9--8-8-8-8--9--|
D|--9--9--9--9---9-9--9-9--9-9-9-9--9-9-9-9--9--|
A|--x--x--x--x---x-x--x-x--x-x-x-x--x-x-x-x--x--|
E|----------------------------------------------|#/2t2##/2t1#

#3t1#Refrão:
#3t2#E|------------------------------|
B|------------------------------|
G|--4---9-------4---9-----------|
D|--4---9---4---4---9---4-------|
A|--2---7---4---2---7---4-------|
E|----------2-----------2-------|#/3t2##/3t1#

#4t1#Intro 2:
#4t2#E|-------------------------------|
B|-------------------------------|
G|-------------------------------|
D|--9-9-9-9-9-9-9-9-9------------|
A|-------------------------------|
E|--9-9-7-7-7-7-7-7-7------------|#/4t2##/4t1#

#5t1#Verse 2:
#5t2#E|----------------------------------------------|
B|----------------------------------------------|
G|--11-11-11-11--9-9--8-8--9-9-9-9--8-8-8-8--9--|
D|--9--9--9--9---9-9--9-9--9-9-9-9--9-9-9-9--9--|
A|--x--x--x--x---x-x--x-x--x-x-x-x--x-x-x-x--x--|
E|----------------------------------------------|#/5t2##/5t1#

#6t1#Refrão 2:
#6t2#E|------------------------------|
B|------------------------------|
G|--4---9-------4---9-----------|
D|--4---9---4---4---9---4-------|
A|--2---7---4---2---7---4-------|
E|----------2-----------2-------|#/6t2##/6t1#

#7t1#Refrão 3:
#7t2#E|------------------------------|
B|------------------------------|
G|--4---9-------4---9-----------|
D|--4---9---4---4---9---4-------|
A|--2---7---4---2---7---4-------|
E|----------2-----------2-------|#/7t2##/7t1#

#8t1##8t2#E|------|
B|------|
G|--4---|
D|--4---|
A|--2---|
E|------|#/8t2##/8t1#
Composição: Artie Kornfeld / Barker / Brian Wilson / Feldman / Feldmann / Hodges / Hoppus / Iil Aaron / J. P. Clark / Jan Berry / John Feldmann / John Lennon / Johnson / JP Clark / JRM / Mark Hoppus / Matt Malpass / Matt Skiba / Matt Skibba / Mott The Hopple / NOFX / Ono Yoko / Roger Christian / Sam Hollander / Skiba / Smrdeath / Stump / T. Hales / Thabiso Nkhereanye / The Cure / Tim Pagnotta / Tom / Tom DeLonge / Travis BarkerColaboração e revisão: Luciano Fernandes