busca

Mother's day

blink-182

Tom: C
(riff 1)  
E|--------------------------------------------------------------------------|
B|--------------------------------------------------------------------------|
G|--x-x-x-x-----------------------------------------------------------------|
D|--2-2-2-2-----5-5--4-4--3-------------------------------------------------|
A|--2-2-2-2-----5-5--4-4--3-------------------------------------------------|
E|--0-0-0-0-----3-3--2-2--1-------------------------------------------------| (4x)
  Fuckin' and sucking and touching
  Fuckin' and sucking and touching
  Fuckin' and sucking and touching
  Fuckin' and sucking and touching
  Fuckin' and sucking and touching
  Fuckin' and sucking and touching

(refrão)
E|-------0-0--3-3---2-2--------------------------------------------------------|
B|-------1-1--3-3---3-3--------------------------------------------------------|
G|-------0-0--0-0---2-2--------------------------------------------------------|
D|--2-2--2-2--0-0---0-0--------------------------------------------------------|
A|--2-2--3-3--2-2---0-0--------------------------------------------------------|
E|--0-0--0-0--3-3---0-0--------------------------------------------------------| (2x)
  It's Mother's Day
  It's Mother's Day
  It's Mother's Day
  It's Mother's Day

(riff 1)
E|--------------------------------------------------------------------------|
B|--------------------------------------------------------------------------|
G|--x-x-x-x-----------------------------------------------------------------|
D|--2-2-2-2-----5-5--4-4--3-------------------------------------------------|
A|--2-2-2-2-----5-5--4-4--3-------------------------------------------------|
E|--0-0-0-0-----3-3--2-2--1-------------------------------------------------| (4x)
  Fuckin' and sucking and touching
  Fuckin' and sucking and touching
  Fuckin' and sucking and touching
  Fuckin' and sucking and touching
  Fuckin' and sucking and touching
  Fuckin' and sucking and touching

(refrão)
E|-------0-0--3-3---2-2--------------------------------------------------------|
B|-------1-1--3-3---3-3--------------------------------------------------------|
G|-------0-0--0-0---2-2--------------------------------------------------------|
D|--2-2--2-2--0-0---0-0--------------------------------------------------------|
A|--2-2--3-3--2-2---0-0--------------------------------------------------------|
E|--0-0--0-0--3-3---0-0--------------------------------------------------------| (2x)
  It's Mother's Day
  It's Mother's Day
  It's Mother's Day
  It's Mother's Day

Clipes