Mother's day

Blink-182

Tom: G
(Verse bit, "fuckin and suckin and touchin" palm mute this first bit obviously...) 

#1t1##1t2#e|--------------------------------------------------------------------------| 
B|--------------------------------------------------------------------------| 
G|-9-9-9-9-9--4-4-4-4--4--3-------------------------------------------------| 
D|-9-9-9-9-9--4-4-4-4--4--3--(repeat..a few times, you'll work it out)------| 
A|-7-7-7-7-7--3-3-3-3--2--1-------------------------------------------------| 
E|--------------------------------------------------------------------------| #/1t2##/1t1#

#2t1#(chorus bit, "its mothers dayy hey hey heeey") 
#2t2#e|--------------------------------------------------------------------------| 
B|--------------------------------------------------------------------------| 
G|-9-9-9--5-5-5-----------7-7-7---------------------------------------------| 
D|-9-9-9--5-5-5--5-5-5--7-7-7-----------------------------------------------| 
A|-7-7-7--3-3-3--5-5-5--5-5-5-----------------------------------------------| 
E|------------------3-3-3---------------------------------------------------| #/2t2##/2t1#

#3t1#the little riff thingy in the chorus is something like this... 
#3t2#e|--------------------------------------------------------------------------| 
B|--------------------------------------------------------------------------| 
G|--9---9---9-----5---5--5--------------------7---7---7---------------------| 
D|----9---9---9-----5---5--5----5---5---5------7---7---7--------------------| 
A|--------------------------------5---5---5---------------------------------| 
E|--------------------------------------------------------------------------| #/3t2##/3t1#

well thats it!! (ORDER) VERSE CHORUS VERSE CHORUS (duh)
Composição: Colaboração e revisão: Alexandre Tadeu