busca

Voyeur

blink-182

Tom: C
[Intro]

  C5                  A5           F5
E|---------------------------------------------------------|
B|---------------------------------------------------------|
G|-5-xxxxxx-xxxxxxxx---------------------------------------|
D|-5-xxxxxx-xxxxxxxx---7-xxxxxxx---3-xxxxxxx-----(2x)------|
A|-3-xxxxxx-xxxxxxxx---7-xxxxxxx---3-xxxxxxx---------------|
E|---------------------5-xxxxxxx---1-xxxxxxx---------------|
 p.m ...... ........   .......   .......

   C5                 A5           F5
E|---------------------------------------------------------|
B|---------------------------------------------------------|
G|-5-555555-55555555---------------------------------------|
D|-5-555555-55555555---7-7777777---3-3333333-----(2x)------|
A|-3-333333-33333333---7-7777777---3-3333333---------------|
E|---------------------5-5555555---1-1111111---------------|

C5
  And when the day ends
    A5             F5
I'm sure she feels sorrow
C5
  The lonely guy I am I
A5              F5
wait for her to change
C5
  I've been here two days
     A5             F5
I'll sure be here tomorrow
C5
  I'd eat her all if she 
     A5           F5
were on my dinner plate

[Refrão]
  
   G5       F5        C5           G5
E|-------------------------------------|
B|-------------------------------------|
G|-------------------------------------|
D|-5-5-5-5--3-3-3-3---2222-3--2222-5---|
A|-5-5-5-5--3-3-3-3---3333----3333-5---|
E|-3-3-3-3--1-1-1-1----------------3---|

   G5        F5       C5       G5
E|----------------------------------------------|
B|----------------------------------------------|
G|---------------------55555555-----------------|
D|-55555555--33333333--55555555--55555555--(2x)-|
A|-55555555--33333333--33333333--55555555-------|
E|-33333333--11111111------------33333333-------|

   G5       F5        C5          G5   C5          G5 
E|------------------------------------------------------|
B|------------------------------------------------------|
G|------------------------------------------------------|
D|-5-5-5-5--3-3-3-3---2222-3--2222-5---2222-3--2222-5---|
A|-5-5-5-5--3-3-3-3---3333----3333-5---3333----3333-5---|
E|-3-3-3-3--1-1-1-1----------------3----------------3---|

G5             F5           C5
  I wish she'd be more kind now
G5           F5
  I'm out of luck cause the 
C5                G5
shades are pulled down
          F5
I've seen everything 
      C5       G5
there is to be shown
               F5          C5  
I followed her all the way home 

[Verso 02]

  C5                  A5           F5
E|---------------------------------------------------------|
B|---------------------------------------------------------|
G|-5-xxxxxx-xxxxxxxx---------------------------------------|
D|-5-xxxxxx-xxxxxxxx---7-xxxxxxx---3-xxxxxxx-----(2x)------|
A|-3-xxxxxx-xxxxxxxx---7-xxxxxxx---3-xxxxxxx---------------|
E|---------------------5-xxxxxxx---1-xxxxxxx---------------|
 p.m ...... ........   .......   .......

   C5                 A5           F5
E|---------------------------------------------------------|
B|---------------------------------------------------------|
G|-5-555555-55555555---------------------------------------|
D|-5-555555-55555555---7-7777777---3-3333333-----(2x)------|
A|-3-333333-33333333---7-7777777---3-3333333---------------|
E|---------------------5-5555555---1-1111111---------------|

C5
  I can't be too cool in a
A5           F5
tree with my pants down
C5
  The air is cold and I've
     A5             F5
got splinters in my feet
C5
  She caught me once but I 
      A5             F5
don't think that she cares now
C5
 Unlike before her view
   A5               F5
is now blocked by a leaf


[Refrão]
  
   G5       F5        C5           G5
E|-------------------------------------|
B|-------------------------------------|
G|-------------------------------------|
D|-5-5-5-5--3-3-3-3---2222-3--2222-5---|
A|-5-5-5-5--3-3-3-3---3333----3333-5---|
E|-3-3-3-3--1-1-1-1----------------3---|

   G5        F5       C5       G5
E|----------------------------------------------|
B|----------------------------------------------|
G|---------------------55555555-----------------|
D|-55555555--33333333--55555555--55555555--(2x)-|
A|-55555555--33333333--33333333--55555555-------|
E|-33333333--11111111------------33333333-------|

   G5       F5        C5          G5   C5          G5 
E|------------------------------------------------------|
B|------------------------------------------------------|
G|------------------------------------------------------|
D|-5-5-5-5--3-3-3-3---2222-3--2222-5---2222-3--2222-5---|
A|-5-5-5-5--3-3-3-3---3333----3333-5---3333----3333-5---|
E|-3-3-3-3--1-1-1-1----------------3----------------3---|

G5             F5           C5
  I wish she'd be more kind now
G5           F5
  I'm out of luck cause the 
C5                G5
shades are pulled down
          F5
I've seen everything 
      C5       G5
there is to be shown
               F5          C5  
I followed her all the way home 

[Ponte]

C5           F5
  I bet this last time's 
    G5           F5
the one time too many
C5            F5
  The rush of waiting is
G5                 F5
burning through my head
C5            F5
  Right after supper her 
G5               F5
brother shower's twice a week
C5           F5
 He kicks my ass so much
     G5             F5  G5
that filthy white inbred

[Terceira Parte]

  C5                  A5           F5
E|---------------------------------------------------------|
B|---------------------------------------------------------|
G|-5-xxxxxx-xxxxxxxx---------------------------------------|
D|-5-xxxxxx-xxxxxxxx---7-xxxxxxx---3-xxxxxxx-----(2x)------|
A|-3-xxxxxx-xxxxxxxx---7-xxxxxxx---3-xxxxxxx---------------|
E|---------------------5-xxxxxxx---1-xxxxxxx---------------|
 p.m ...... ........   .......   .......

   C5                 A5           F5
E|---------------------------------------------------------|
B|---------------------------------------------------------|
G|-5-555555-55555555---------------------------------------|
D|-5-555555-55555555---7-7777777---3-3333333-----(2x)------|
A|-3-333333-33333333---7-7777777---3-3333333---------------|
E|---------------------5-5555555---1-1111111---------------|

C5
  I've made mistakes by 
        A5           F5
looking in the wrong window
C5
  Her dad is big and I've
A5             F5
never seen his face
C5
  I've been here two days
         A5             F5
and I'll sure be here tomorrow
C5
  My lady's so sweet she
A5            F5
likes to entertain

[Refrão]
  
   G5       F5        C5           G5
E|-------------------------------------|
B|-------------------------------------|
G|-------------------------------------|
D|-5-5-5-5--3-3-3-3---2222-3--2222-5---|
A|-5-5-5-5--3-3-3-3---3333----3333-5---|
E|-3-3-3-3--1-1-1-1----------------3---|

   G5        F5       C5       G5
E|----------------------------------------------|
B|----------------------------------------------|
G|---------------------55555555-----------------|
D|-55555555--33333333--55555555--55555555--(2x)-|
A|-55555555--33333333--33333333--55555555-------|
E|-33333333--11111111------------33333333-------|

   G5       F5        C5          G5   C5          G5 
E|------------------------------------------------------|
B|------------------------------------------------------|
G|------------------------------------------------------|
D|-5-5-5-5--3-3-3-3---2222-3--2222-5---2222-3--2222-5---|
A|-5-5-5-5--3-3-3-3---3333----3333-5---3333----3333-5---|
E|-3-3-3-3--1-1-1-1----------------3----------------3---|

G5             F5           C5
  I wish she'd be more kind now
G5           F5
  I'm out of luck cause the 
C5                G5
shades are pulled down
          F5
I've seen everything 
      C5       G5
there is to be shown
               F5          C5  
I followed her all the way home
 
[Ponte]

C5           F5
  I bet this last time's 
    G5           F5
the one time too many
C5            F5
  The rush of waiting is
G5                 F5
burning through my head
C5            F5
  Right after supper her 
G5               F5
brother shower's twice a week
C5           F5
 He kicks my ass so much
     G5             F5  G5
that filthy white inbred

E|-----------------------------------------------------------|
B|-----------------------------------------------------------|
G|-----------------------55-------5--------------------------|
D|-3-3----------------33-55-55--3-5-5---(4x)-----------------|
A|-3-3----------------33-33-55--3-3-5------------------------|
E|-1-1----------------11----33--1---3------------------------|

E|-----------------------------------------------------------|
B|-----------------------------------------------------------|
G|--------------------------------5--------------------------|
D|-2222-3--2222-5--2222-3--2222-5-5--------------------------|
A|-3333----3333-5--3333----3333-5-3--------------------------|
E|--------------3---------------3----------------------------|

Clipes