busca

What Went Wrong

blink-182

Tom: A
(intro 2x) A F#m D

E|----------------------------------------------------------------|
B|----------------------------------------------------------------|
G|----------4---2---------------4---2-----------------------------|
D|------2-------------------2-------------------------------------|
A|----------------------------------------------------------------|
E|----------------------------------------------------------------|

(verso 1)
  A                F#m                E
I'm sick of always hearing all those sad songs on
        D
the radio
 A            F#m                     E
All day it is there to remind an oversensitive guy
            D
that he is lost and alone, yeah.

(verso 2)
 A                  F#m                       E
I hate our favorite restaurant, our favorite movie,
           D
our favorite show.
 A                F#m                         E
We would stay up all through the night, we would
                       D
laugh and get high - never answer the phone.

(refrão)
A           E            F#m               D
I can't forgive, can't forget, can't give in
              A
what went wrong?
          E               F#m
cause you said this was right
          D
you fucked up my life.

(verso 3)
 A                   F#m                E
I`m sick of always hearing sappy love songs on the
     D
radio
  A                        F#m
This placeits fucking cursed and its plagued and I
      E
can never escape when my heart it
      D
explodes

(refrão)
 A           E           F#m            D
I can't forgive, can't forget, can't give in - what
         A
went wrong?
            E               F#m
cause you said this was right
                   D
you fucked up my life.

(ponte)
E|-----------0------|------------------|------------0------|--------------------------
B|------------------|-----------2------|-------------------|--------2-----------------
G|-------2-------2--|-------2-------2--|-------2--------2--|-----2-----2--------------
D|------------------|------------------|-------------------|--------------------------
A|------------------|------------------|-------------------|--------------------------
E|---2--------------|---2--------------|--2----------------|--2-----------------------

E|----------0----|-------------------|------------0----|--------------------------------
B|---------------|-------------2-----|-----------------|--------------2-----------------
G|-------2-----2-|---------2------2--|--------2------2-|---------2---------2------------
D|---0-----------|-----0-------------|----0------------|----0---------------------------
A|---------------|-------------------|-----------------|--------------------------------
E|---------------|-------------------|-----------------|--------------------------------

E|------------0-----|----------------------|-----------------0-------|-----------------
B|------------------|-------------2--------|-------------------------|-----------2-----
G|-------2-------2--|--------2---------2---|------------2--------2---|-------2--------2
D|------------------|----------------------|-------------------------|-----------------
A|---0--------------|----0-----------------|-------2-----------------|--2--------------
E|------------------|----------------------|-------------------------|-----------------

E|---------------------------------------------------|
B|-----------2-----------2-----------2------------2--|
G|-------2-----------2-----------2------------2------|
D|---0-----------0-----------0-----------0-----------|
A|---------------------------------------------------|
E|---------------------------------------------------|

E|---------------------------------------------------|
B|---------------------------------------------------|
G|---------------------------------------------------|
D|---3-2-3-5-3---7-8-10-3---2-3-5-7---5-2-5-3--------|
A|---------------------------------------------------|
E|---------------------------------------------------|

( F#m D A  F#m D A A E D )

(fim)
 A               F#m          D           A
I'm kicking out fiercely at the world around me,
F#m         D
what went wrong?
 A               F#m          D           A
I'm kicking out fiercely at the world around me,
F#m         D
what went wrong?
 A               F#m          D           A
I'm kicking out fiercely at the world around me,
F#m         D
what went wrong?
 A               F#m          D           A
I'm kicking out fiercely at the world around me,
F#m         D
what went wrong?
       A
I'm kicking.

Clipes