busca

Sic

Slipknot




Tabbed By Davide Castagnone


INTRO
E |------------------------------------------------------|
B |------------------------------------------------------|
F#|------------------------------------------------------|
B |-0-0---0-0-0---0-0-0---0-0-0-1------------------------|


Variation at 21 seconds
E |------------------------------------------------------|
B |------------------------------------------------------|
F#|------------------------------------------------------|
B |--3-0-0-0-1-0-0-0-------------------------------------|


Verse
E |------------------------------------------------------|
B |------------------------------------------------------|
F#|------------------------------------------------------|
B |-1-0-0-1-0-1-0-1-0-1-4-3-0-6--------------------------|

Chorus
E |------------------------------------------------------|
B |------------------------------------------------------|
F#|-10--7--9--6------------------------------------------|
B |------------------------------------------------------|

Variation 2  1 min and 30 sec
E |------------------------------------------------------|
B |------------------------------------------------------|
F#|--5-----6---0-----------------------------------------|
B |----6-6---7-------------------------------------------|

Variation 3 1 min and 40 sec
E |------------------------------------------------------|
B |------------------------------------------------------|
F#|--5h-6-5h-6-------------------------------------------|
B |------------6-----------------------------------------|

Variation 4  1 min and 50 sec
E |------------------------------------------------------|
B |------------------------------------------------------|
F#|------------------------------------------------------|
B |--0-0-0-0-0-1-----------------------------------------|

Variation 5 1 min and 58 sec
E |------------------------------------------------------|
B |------------------------------------------------------|
F#|--------1---------------------------------------------|
B |--0-3-2---0-3-2---------------------------------------|

Clipes