busca

Anthem Part II

Blink-182

Tabbed By Art

Ive Just started playing bass but its really easy and  BY the way this is my first tab.

Intro
G|--------|
D|--------|     Repeat As Necessary
A|-3333---|
E|--------|

Then (*)
G|-----------------------------------|
D|-----------------------------------| 1x
A|-3333----555555-000000-888888------|
E|-----------------------------------|

G|------------------------------------|
D|------------------------------------|  until guitar starts playing
A|-3333333-5555555-0000000-8888888----|  the "riff"
E|------------------------------------|
and then
G|------------------------------------|
D|------------------------------------|
A|-333333333333-0000000000-8888888----|
E|------------------------------------|
"Everything Has fallen to pieces..."
G|------------------------------------|
D|------------------------------------|
A|-333333333-0000000------------------|
E|-------------------11111111---------|REPEAT THESE TWO MEASURES TWICE

G|------------------------------------|
D|------------------------------------|
A|-333333333-0000000-88888888---------|
E|------------------------------------|

G|----------------------------|
D|----14--------12------10~---|
A|-12----12/10-----10/8-------|
E|----------------------------|

"We Really Need To..."
G|-------------------------------|
D|-------------------------------|
A|--------------3333333----------|     2x
E|-00000-111111----------333333--|

G|------------------------------------------------|
D|------------------------------------------------|
A|-0000000----------33333333----------0000000-----|    1x
E|---------1111111------------3333333----------1~-|

Interlude
G|--------------------------------|
D|--------------------------------|  repeat as necesary
A|-333333333333-0000000-----------|
E|----------------------111111----|

Last Time
G|------------------------------17----17----17-----17----|
D|---------------------------------17----17-----17-------|
A|-333333333333-00000000-88888---------------------------|
E|-------------------------------------------------------|

We really need to..." (again)
And then the (*) part
and thats all, sounds pretty fuckin awesome

Clipes