busca

Happy Holidays, You Bastard

blink-182

Tom: G

Afinação : EADGBE

Riff A(Pt.1)                  Riff A (Pt.2)
E---------------------------------------------------
B---------------------------------------------------
G-4-4-4-4-4-4---------------------------------------
D-4-4-4-4-4-4--4-4-4-4-4-4-----6-6-6-6-6--2-2-2-2-2-
A-2-2-2-2-2-2--4-4-4-4-4-4-----6-6-6-6-6--2-2-2-2-2-
E--------------2-2-2-2-2-2-----4-4-4-4-4--0-0-0-0-0-

Riff B
E-------------------------------------------------------------
B-------------------------------------------------------------
G-4444--------------4444------------------4444----------------
D-4444-4444-2-444---4444-4444-2222-2222---4444-4444-2222-2222-
A-2222-4444-2-444---2222-4444-2222-2222---2222-4444-2222-2222-
E------2222-0-222--------2222-0000-0000--------2222-0000-0000-

Riff B (continuidade)
E---------------------------------------------------
B---------------------------------------------------
G-4444----------------------------------------------
D-4444-4444-2222-4444-------------------------------
A-2222-4444-2222-4444-------------------------------
E------2222-0000-2222-------------------------------

Ultimo Acorde
E---------------------------------------------------
B---------------------------------------------------
G-4-------------------------------------------------
D-4-------------------------------------------------
A-2-------------------------------------------------
E---------------------------------------------------

Ordem:
Riff A(Pt.1)x 2
Riff A(Pt.2)x 1
Riff B      x 1
Riff A(Pt.1)x 2
Riff A(Pt.2)x 1
Riff B      x 1
Last Chord


Letra:
======

It's Christmas Eve, and I've only wrapped two fuckin' presents
it's Christmas Eve, and I've only wrapped two fuckin' presents
and I hate, hate, hate your guts
I hate, hate, hate your guts
and I'll never talk to you again

Unless your dad will suck me off
I'll never talk to you again
unless your mom will touch my cock
I'll never talk to you again
ejaculate into a sock
I'll never talk to you again
I'll never talk to you again

It's Labor Day and my Grandpa just ate seven fuckin' hotdogs
it's Labor Day and my Grandpa just ate seven fuckin' hotdogs
and he shit, shit, shit his pants
he always fuckin' shitin' his pants
and I'll never talk to you again

Unless your dad will suck me off
I'll never talk to you again
unless your mom will touch my cock
I'll never talk to you again
ejaculate into a sock
I'll never talk to you again
I'll never talk to you again

Clipes