busca

Obvious

blink-182

Tom: D
Intro
    C#   A  
1------------------------------------------------
2------------------------------------------------
3------------------------------------------------
4---6-6------------------------------------------
5---4-4--7-7--7-7--7-----------------------------
6--------5-5--5-5--5----------------------------- X6

Verso

1------------------------------------------------
2---6~---8~---10~---6~---------------------------
3---5~---7~---9~----5~---------------------------
4---3~---5~---7~----3~---------------------------   2x
5------------------------------------------------
6------------------------------------------------

I saw you again
I think you used me again
Shoud me try this before use give up and move on
And pretend to resture what we have and hold on



At times like these
It's obvious
X2
1---------------------------------------------------
2--------------------------------------------------- essa parte é no baixo 
3---------------------------------------------------
4---------------------------------------------------
5---------------------------------------------------
6---555--333--666---000---222222-------------------- 
Intro

Verso
1------------------------------------------------
2---6~---8~---10~---6~---------------------------
3---5~---7~---9~----5~---------------------------
4---3~---5~---7~----3~---------------------------   2x
5------------------------------------------------
6------------------------------------------------
I saw you again
I know you fucked him again
Can you confort yourselfwith a sense of revenge 
Are you leaving me here with the taste of the end

2x
At times like these
It's obvious
X4
1---------------------------------------------------
2--------------------------------------------------- essa parte é no baixo 
3---------------------------------------------------
4---------------------------------------------------
5---------------------------------------------------
6---555--333--666---000---222222-------------------- 

parada

1---------------------------------------------------
2---------------------------------------------------
3---------------------------------------------------
4---9-9-9---------6--10--9--10----------------------
5---7-7-7--7-7-7--4---8--7---8----------------------
6----------5-5-5------------------------------------  X6

Final ( I saw you again.....)
1---------------------------------------------------
2---------------------------------------------------
3---------------------------------------------------
4---9999999999999999---666666-----------------------
5---7777777766666666---444444-----------------------
6---------------------------------------------------

1-----------------------------------------------------------------
2-----------------------------------------------------------------
3---9-9-9-9-9-9-9-9-----6-6-6-6-6-6-6-6---------------------------
4---9-9-9-9-9-9-9-9-----6-6-6-6-6-6-6-6---------------------------
5---7-7-7-7-6-6-6-6-----4-4-4-4-4-4-4-4------7-7-7-7-7-7-7-7------
6--------------------------------------------5-5-5-5-5-5-5-5------ 

1-----------------------------------------------------
2-----------------------------------------------------
3---6~------------------------------------------------
4---6~------------------------------------------------
5---4~------------------------------------------------
6-----------------------------------------------------

o fim é assim , com uma boa distorçao .fica tudo legal.

Clipes