busca

Você Pra Mim

Maria Cecília e Rodolfo

Tom: A
Intro:

  A  E/G#  F#m  E  D  E
E|----------------------------------------------------|
B|-----5---5h7-5--------------------------------------|
G|-3/6---6-------8p6-4-----4-6-7-7-7-6-7-7/9----------|
D|---------------------7-7----------------------------|
A|----------------------------------------------------|
E|----------------------------------------------------|

1ª Parte:

 A     Dm        E        A
Sabe, vou te contar a verdade
Dm        E        F#m
Eu tô sentindo saudade
     E            D
Pra mim não é normal
                F#m    E               D
Eu nunca fui assim, gostar tanto de alguém
  E
E esquecer de mim

Solo:

  ( A  E/G#  F#m  E  D  E )
E|----------------------------------------------------|
B|-----5---5h7-5--------------------------------------|
G|-3/6---6-------8p6-4-----4-6-7-7-7-6-7-7/9----------|
D|---------------------7-7----------------------------|
A|----------------------------------------------------|
E|----------------------------------------------------|

2ª Parte:

 A   Dm        E        A
Sabe,eu descobri que te amo
  Dm       E           F#m
Quando te vi em meus planos
    E            D                      F#m
Já deu pra perceber, que quando estamos sós
   E         D      E             A
Começo a tremer, e perco a minha voz

Refrão 2x:

        A7          D       Dm      A
Queria tanto te roubar, de vez pra mim
        A7            D     Dm      A
Queria tanto ouvir você, dizer que sim

Solo:

 ( A  E/G#  F#m  E  D  E )
E|----------------------------------------------------|
B|-----5---5h7-5--------------------------------------|
G|-3/6---6-------8p6-4-----4-6-7-7-7-6-7-7/9----------|
D|---------------------7-7----------------------------|
A|----------------------------------------------------|
E|----------------------------------------------------|

2ª Parte:

 A    Dm        E        A
Sabe, eu descobri que te amo
  Dm       E           F#m
Quando te vi em meus planos
    E            D                       F#m
Já deu pra perceber, que quando estamos sós
   E         D      E             A
Começo a tremer, e perco a minha voz

Refrão 4x:

        A7          D       Dm      A
Queria tanto te roubar, de vez pra mim

        A7            D     Dm      A
Queria tanto ouvir você, dizer que sim

Solo:

 ( A  E/G#  F#m  E  D  E )
E|----------------------------------------------------|
B|-----5---5h7-5--------------------------------------|
G|-3/6---6-------8p6-4-----4-6-7-7-7-6-7-7/9----------|
D|---------------------7-7----------------------------|
A|----------------------------------------------------|
E|----------------------------------------------------|

Clipes

Cifra Club Pro

Aproveite o Cifra Club com benefícios exclusivos e sem anúncios
Cifra Club Pro
Aproveite o Cifra Club com benefícios exclusivos e sem anúncios