busca

A New Hope

blink-182

Tom: G
Album  :   Dude Ranch

the net, i decided to tab it myself. Dont judge too harshly if you find any mistakes, 
its my first tab. It sounds accurate enough to me. By the way, you'll have to work out t
he strumming patterns for yourself, because im too lazy to write all of it out. Its 
easy to work out the patterns though, just listen to the song a couple of times and 
you'll pick it up easily.  
 

Intro 1 

E)-8--10--8--8--8--7---- X2
B)-0---8--0--5--7--7----
G)----------------------
D)----------------------
A)----------------------
E)----------------------

Intro 2

E)--------------------- X2
B)---------------------
G)-------5--7----------
D)-5--7--5--7----------
A)-5--7--3--5----------
E)-3--5----------------

Verse

E)---------------------------------------
B)--------------------------------8--7---
G)----5--7-------5--7-------5--7--0--7---
D)-5--5--7----5--5--7----2--5--7---------
A)-5--3--5----5--3--5----2--3--5---------
E)-3----------3----------0---------------

Do a quick pickscrape then go straight into the
chorus.

Chorus 

E)----------------------------------------
B)----------------------------------------
G)----5--------------------5--7-----------
D)-7--5--5--7--5--2-----7--5--7-----------
A)-7--3--5--7--5--2-----7--3--5-----------
E)-5-----3--5--3--4-----5-----------------
        pm    pm      

Play intro 1 and 2 again, only 1 time 
each this time round though, then play
the verse and chorus again.

Solo 1 

part 1

E)------------------------------------------------
B)------------------------------------------------
G)------2--2--0H3--2--2--0H3--2--2---0H3--2--2--0-
D)-5----2--2-------2--2-------2--2--------2--2----
A)-5----0--0-------0--0-------0--0--------0--0----
E)-3----------------------------------------------
  pm   pm pm      pm pm      pm pm       pm pm


part 2

E)------------------------------------------------
B)------------------------------------------------
G)------2--2--1P0--2--2--1P0--2--2---1P0--2--2--0-
D)-5----2--2-------2--2-------2--2--------2--2----
A)-5----0--0-------0--0-------0--0--------0--0----
E)-3----------------------------------------------
  pm   pm pm      pm pm      pm pm       pm pm


Part 3

E)------------------------------------------------
B)------------------------------------------------
G)------2--2--0H3--2--2--0H3--2--2---0H3--2--2--0-
D)-5----2--2-------2--2-------2--2--------2--2----
A)-5----0--0-------0--0-------0--0--------0--0----
E)-3----------------------------------------------
  pm   pm pm      pm pm      pm pm       pm pm


Part 4

E)------------------------------------------------
B)------------------------------------------------
G)------2--2--1P0--2--2--1P0--2--2---0H1--2--2--0-
D)-5----2--2-------2--2-------2--2--------2--2----
A)-5----0--0-------0--0-------0--0--------0--0----
E)-3----------------------------------------------
  pm   pm pm      pm pm      pm pm       pm pm


Solo 2

E)----------------- X3
B)-----------------
G)----7--5--9--7---
D)-5--7--5--9--7---
A)-5--5--3--7--5---
E)-3---------------

then play 


E)------------ 
B)------------
G)----7--5----
D)-5--7--5----
A)-5--5--3----
E)-3----------

Then play the chorus a few more times and end on: 


E)----------------- 
B)-----------------
G)----5--7---------
D)-7--5--7--5------
A)-7--3--5--5------
E)-5--------3------

Well, thats it. Im pretty sure its 100% accurate. If you've got
any comments to make on it, email me at S*.

Clipes