busca

Always

blink-182

Tom: E
Intro (baixo)

G| ------------------------
D| ------------------------
A| 2222--------------------
E| -----22222---4444---0000

Verso (ainda no baixo)

G| ---------------------------------------------
D| ---------------------------------------------
A| 22222-111111----------22222---11111----------
E| --------------4444444----------------44444444

Guitarra entra na parte "And your hand they shake..."

E| --------------------------------------------
B| --------------------------------------------
G| 44444-33333---------4444-33333--------------
D| 44444-33333-666666--4444-33333-6666666-44444
A| 22222-11111-666666--2222-11111-6666666-44444
E| ------------444444-------------4444444-22222
                    p.m.

Pre-Refrao

---------------------------
------4-4---4-4---4-4------
----4--4---4-4---4-4----4-4   2x
---------------------------
-2-------------------------
---------------------------

Refrao

-----------------------------------
-----------------------------------
-4444444--8888888----------99999999
-4444444--8888888-66666666-99999999 2x
-2222222--6666666-66666666-77777777
------------------44444444---------

Repete o riff do pre-refrao

Repete Pré-Refrao depois do verso com o riff de baixo
Repete Refrao

Interlúdio

-------------------------------------------------------------------------
-------------------------------------------------------------------------
-4444444-3333333----------88888-444--444444444-3333333-----------88888-44
-xxxxxxx-xxxxxxx-6666666--xxxxx-xxx--xxxxxxxxx-xxxxxxx-66666666--xxxxx-xx
-2222222-1111111-xxxxxxx--66666-222--222222222-1111111-xxxxxxxx--66666-22
-----------------4444444-------------------------------44444444----------

-----------------------------
-----------------------------
-----------------------------
-/8---6---4-----4/6--8--6---4
-/x---x---x-----x/x--x--x---x
-/6---4---2-----2/4--6--4---2..................

Repete Refrao 4x

Final:

--------------------------------------------------
-4-4-4--4-5---4-4-4-4-5-4-4-4--4-5-4--4-5-4---4-5-
--4-4-4--------4-4-4-----4-4-4-------4------4-----
--------------------------------------------------  2x
--------------------------------------------------
--------------------------------------------------

E| 11--9-------11--9----11--9------12--11-----9
B|---------12--------12-------12----------12---  2x
G|---------------------------------------------

Toque B5 pra finalizar.

Clipes