busca

Always

Blink-182

Tom: F#
Ouça a música para saber a hora de entrar com a intro e etc..
vlw galera..

Intro(Sem distorção)
e|----------
B|----------
G|4--6--8--2
D|x--x--x--x      X8 cada, nessa ordem..
A|2--4--6--4
E|----------

Verse(abafado)
G|4--6---
D|4--6--6    P.M
A|2--4--6
E|------4

Pré-Refrão/Pós-Refrão (Sem distorção)
e|-------------------------------
B|--4-4----4-4-4--4-4-4---4-4-4--
G|-4-4-4----4-4----4-4-----4-4---
D|-------------------------------
A|2------4-----------------------
E|---------------4------0--------

Refrão(distoção)
e|-----------------------------------
B|-----------------------------------
G|99999999-44444444------------------
D|99999999-55555555-77777777-55555555   
A|77777777-22222222-77777777-55555555      
E|------------------55555555-33333333     

INTERLUDIO(cleane)
e|-----------------------------------------------
B|-----------------------------------------------
G|44444/5/44444/5/44444/5/4--4/5/4--4/5/4--4/5/4~
D|xxxxx/x/xxxxx/x/xxxxx/x/x--x/x/x--x/x/x--x/x/4~
A|22222/3/22222/3/22222/3/2--2/3/2--2/3/2--2/3/2~
E|-----------------------------------------------

Nessa parte tem um efeito, mas pode ser feito com distorção
E|7-7-4---2--66-4--2---4-

FINAL(cleane)
e|------------------------------------------------------
B|-4-4-4-4-5-4-4--4-4-4-5-4--4-4-4-4-5-4---5-4--5-4-5-4-
G|--4-4-4----------4-4-4------4-4-4-------4----4---4----
D|------------------------------------------------------
A|------------------------------------------------------
E|------------------------------------------------------

Always-blink 182

I've been here before a few times       |Sem guitarra..
And I'm quite aware we're dying         |

VERSE(2X)
And your hands they shake with goodbyes
And I'll take you back if you'd have me 

Pré-Refrão/Pós-Refrão
So here I am I'm trying
So here I am are you ready

Refrão(X2)
Come on let me hold you touch you feel you
Always
Kiss you taste you all night 
Always

Pré-Refrão/Pós-Refrão

Verse(X2)
And I'll miss your laugh your smile
I'll admit I'm wrong if you'd tell me
I'm so sick of fights I hate them
Lets start this again for real

Pré-Refrão/Pós-Refrão(X2)
So here I am I'm trying
So here I am are you ready
So here I am I'm trying
So here I am are you ready

Refrão(X2)
Come on let me hold you touch you feel you
Always
Kiss you taste you all night 
Always
Come on let me hold you touch you feel you
Always 
Kiss you taste you all night
Always

INTERLUDIO

I've been here before a few times |Sem guitarra..
And I'm quite aware we're dying   |

Refrão(X4)
Come on let me hold you touch you feel you
Always
Kiss you taste you all night 
Always
Come on let me hold you touch you feel you
Always 
Kiss you taste you all night
Always

Final(até o fim)
Always....Always

Clipes

Cifra Club Pro

Aproveite o Cifra Club com benefícios exclusivos e sem anúncios
7 dias grátis
Cifra Club Pro
Aproveite o Cifra Club com benefícios exclusivos e sem anúncios
7 dias grátis