busca

Always

blink-182

Intro
G|-4-4-4-4-4-4-4-4-6-6-6-6-6-6-6-6-8-8-8-8-8-8-8-8-4-4-4-4-4-4-4-4-|
D|-4-4-4-4-4-4-4-4-4-4-4-4-4-4-4-4-6-6-6-6-6-6-6-6-2-2-2-2-2-2-2-2-|     x2
A|-----------------------------------------------------------------|
E|-----------------------------------------------------------------|

Verso
G|11-11-11-11-11-11-11-11-6-6-6-6-6-6-6-4-4-4-4-4-4-4-4-4-4-4-4-4-4-4-4-|
D|-9--9--9--9--9--9--9--9-8-8-8-8-8-8-8-6-6-6-6-6-6-6-6-6-6-6-6-6-6-6-6-|    x3
A|----------------------------------------------------------------------|
E|----------------------------------------------------------------------|

G|11-11-11-11-11-11-11-11-6-6-6-6-6-6-6-4-4-4-4-4-4-4-4-6-6-6-6-6-6-6-6-|
D|-9--9--9--9--9--9--9--9-8-8-8-8-8-8-8-6-6-6-6-6-6-6-6-4-4-4-4-4-4-4-4-|
A|----------------------------------------------------------------------|
E|----------------------------------------------------------------------|


Pré-refrão
G|-4-4-4-4-4-4-4-4-6-6-6-6-6-6-6-6-8-8-8-8-8-8-8-8-4-4-4-4-4-4-4-4-|
D|-4-4-4-4-4-4-4-4-4-4-4-4-4-4-4-4-6-6-6-6-6-6-6-6-2-2-2-2-2-2-2-2-|     x2
A|-----------------------------------------------------------------|
E|-----------------------------------------------------------------|

Refrão 
G|-----------------------------------------------------------------|
D|-----------------------------------------------------------------|     x2
A|-2-2-2-2-2-2-2-2-4-4-4-4-4-4-4-4---------------------------------|
E|---------------------------------4-4-4-4-4-4-4-4-0-0-0-0-0-0-0-0-|

Pós-refrão
G|-4-4-4-4-4-4-4-4-6-6-6-6-6-6-6-6-8-8-8-8-8-8-8-8-4-4-4-4-4-4-4-4-|
D|-4-4-4-4-4-4-4-4-4-4-4-4-4-4-4-4-6-6-6-6-6-6-6-6-2-2-2-2-2-2-2-2-|     x2
A|-----------------------------------------------------------------|
E|-----------------------------------------------------------------|

Verso
G|-8-----------8---6-----------6---8-----------------------------------|
D|-------9---------------7---------------6-----4---6-------------------|     x4
A|---------------------------------------------------------------------|
E|---------------------------------------------------------------------|

Pré-refrão
G|-4-4-4-4-4-4-4-4-6-6-6-6-6-6-6-6-8-8-8-8-8-8-8-8-4-4-4-4-4-4-4-4-|
D|-4-4-4-4-4-4-4-4-4-4-4-4-4-4-4-4-6-6-6-6-6-6-6-6-2-2-2-2-2-2-2-2-|     x4
A|-----------------------------------------------------------------|
E|-----------------------------------------------------------------|

Refrão 
G|-----------------------------------------------------------------|
D|-----------------------------------------------------------------|     x4
A|-2-2-2-2-2-2-2-2-4-4-4-4-4-4-4-4---------------------------------|
E|---------------------------------4-4-4-4-4-4-4-4-0-0-0-0-0-0-0-0-|

Pós-refrão
G|-4-4-4-4-4-4-4-4-6-6-6-6-6-6-6-6-8-8-8-8-8-8-8-8-4-4-4-4-4-4-4-4-|
D|-4-4-4-4-4-4-4-4-4-4-4-4-4-4-4-4-6-6-6-6-6-6-6-6-2-2-2-2-2-2-2-2-|     x3
A|-----------------------------------------------------------------|
E|-----------------------------------------------------------------|

G|-4-4-4-4-4-4-4-4-6-6-6-6-6-6-6-6-8-8-8-8-8-8-8-8-4---------------|
D|-4-4-4-4-4-4-4-4-4-4-4-4-4-4-4-4-6-6-6-6-6-6-6-6-2---------------|   
A|-----------------------------------------------------------------|
E|-----------------------------------------------------------------|

Refrão
G|-----------------------------------------------------------------|
D|-----------------------------------------------------------------|     x4
A|-2-2-2-2-2-2-2-2-4-4-4-4-4-4-4-4---------------------------------|
E|---------------------------------4-4-4-4-4-4-4-4-0-0-0-0-0-0-0-0-|

Pós-refrão
G|-4-4-4-4-4-4-4-4-6-6-6-6-6-6-6-6-8-8-8-8-8-8-8-8-4-4-4-4-4-4-4-4-|
D|-4-4-4-4-4-4-4-4-4-4-4-4-4-4-4-4-6-6-6-6-6-6-6-6-2-2-2-2-2-2-2-2-|     x3
A|-----------------------------------------------------------------|
E|-----------------------------------------------------------------|

End
G|-4-4-4-4-4-4-4-4-6-6-6-6-6-6-6-6-8-8-8-8-8-8-8-8-4-4-4-4-4-4-4-4-4--------|
D|-4-4-4-4-4-4-4-4-4-4-4-4-4-4-4-4-6-6-6-6-6-6-6-6-2-2-2-2-2-2-2-2-4--------|
A|--------------------------------------------------------------------------|
E|--------------------------------------------------------------------------|

Clipes